PrimaNota.ru - самый крупный в мире бесплатный архив песенных текстов, аккордов, табулатур и нот


Gramatik - Torture - таба, видео

Регистрация Запомнить меня
Войти через:  Facebook Google Twitter Vk Yandex Mail.ru

Gramatik - Torture - таба, видео

Печатать
Просмотров: 266
Уроки эстрадного вокала в Санкт-Петербурге
I didn't see many tabs available for Gramatik's sick guitar riffs,
so I decided to start tabbing out a few. Here's the first, and one of my favorites.

The intro/verse riff is repeated throughout the song, and the bridge riff is
chopped/manipulated by Denis, so this is just a tab of the raw riffs that Eric plays.

Comment/email me with any corrections, and enjoy!

-------------------------------------------------------------------------------
               Torture (Feat. Eric Krasno) - Gramatik
-------------------------------------------------------------------------------
Tabbed by:Andy Ness
E-mail:andyrovinski@gmail.com

Tuning: EADGBE (standard)


Intro Part 1

e|---------------------------------------------------------------------------|
B|---10^---------------------------------------------------------------------|
G|---10^---------------------------------------------------------------------|
D|-0-------12-10-------------------------------------------------------------|
A|(0)-------------12--12\10--8----X-X----------------------------------------|
E|--------------------------------X-X----------------------------------------|

After that, there's several ways that the second part can be played. I personally think it's

e|---------------------------------------------------------------------------|
B|---------------------------------------------------------------------------|
G|---------------------------------------------------------------------------|
D|---------------------------------------------------------------------------|
A|--8-----10--8-----5----5---------------------------------------------------|
E|--8h10-------------5h8-----------------------------------------------------|

But it could also be
e|---------------------------------------------------------------------------|
B|---------------------------------------------------------------------------|
G|---------------------------------------------------------------------------|
D|----------------0-----0----------------------------------------------------|
A|--8-----10--8-----0h3------------------------------------------------------|
E|--8h10---------------------------------------------------------------------|

Or 

e|---------------------------------------------------------------------------|
B|---------------------------------------------------------------------------|
G|-------0-------------------------------------------------------------------|
D|----------3----0------0----------------------------------------------------|
A|--3h5-------------0h3------------------------------------------------------|
E|--1------------------------------------------------------------------------|

Or any combination of those. Just figure out what you like.

Then during the bridge/breakdown, starting at 1:20,

e|-----------------10--------------------------------------------------------|
B|---------------10-------------------13-10----------------------------------|
G|---------12b^14---------------------------12--12^--12----------------------|
D|---------------------------------------------------------------------------|
A|---------------------------------------------------------------------------|
E|---------------------------------------------------------------------------|

e|---------------------------------------------------------------------------|
B|----------------------------------13-10------------------------------------|
G|------14pbr12---------------------------12--10-----------------------------|
D|--------------12-------------------------------10h12-----------------------|
A|---------------------------------------------------------------------------|

e|---------------------------------------------------------------------------|
B|----------10---------------------13-10-------------------------------------|
G|----12b^14-----12^--12^----------------12--10---10h12----------------------|
D|---------------------------------------------------------------------------|
A|---------------------------------------------------------------------------|
E|---------------------------------------------------------------------------|

Then at the end,


e|------------10---------------10--------------------------------------------|
B|----------10---------------10--10------------------------------------------|
G|----12b^14-----------12b^14------------------------------------------------|
D|---------------------------------------------------------------------------|
A|---------------------------------------------------------------------------|
E|---------------------------------------------------------------------------|

************************************

| /   slide up
| \   slide down
| h   hammer-on
| p   pull-off
| ~   vibrato
| +   harmonic
| x   Mute note
| b   Bend
| pb  Pre-bend
| br  Bend release
| pbr Pre-bend release
| brb Bend release bend

************************************
Добавлено: 18.04.2014
Другие материалы по этой песне:
  • Аккорды и текст

Страница создана 18.04.2014
http://primanota.ru/gramatik/torture-chords.htm
Привет, Гость.
Предлагаем пройти революционный курс по гитаре.
Подарок от PrimaNota.Ru, забирай!