PrimaNota.ru - самый крупный в мире бесплатный архив песенных текстов, аккордов, табулатур и нот


Gramatik - Somebody - бас-таба, видео

Регистрация Запомнить меня
Войти через:  Facebook Google Twitter Vk Yandex Mail.ru

Gramatik - Somebody - бас-таба, видео

Печатать
Просмотров: 68
Уроки эстрадного вокала в Санкт-Петербурге
SOMEBODY
Gramatik



intro
G |-------------------------|
D |-------------------------| x2
A |----------4----6--6------|
E |--6---6-----6------------|


verse
G |-----------------------------------------------------------------------------------------------------|
D |--------4------------------------4--4-------------------4--------------------------------------------| 
A |--6--------------4-----6--6-----------4--4--4--6---------------4-----6--6-----6--6--4--4-------------|
E |-----6-----6--6-----6--------6----------------------6-----6--6-----6--------6----------------6-------|
repeat this line every time.

Enjoy! 
Добавлено: 27.04.2016
Другие материалы по этой песне:
  • Аккорды и текст

Страница создана 27.04.2016
http://primanota.ru/gramatik/somebody-chords.htm
Привет, Гость.
Предлагаем пройти революционный курс по гитаре.
Подарок от PrimaNota.Ru, забирай!