PrimaNota.ru - самый крупный в мире бесплатный архив песенных текстов, аккордов, табулатур и нот


Grails - The Burden Of Hope - таба, видео

Регистрация Запомнить меня
Войти через:  Facebook Google Twitter Vk Yandex Mail.ru

Grails - The Burden Of Hope - таба, видео

Печатать
Просмотров: 104
Уроки эстрадного вокала в Санкт-Петербурге
INTRO to the song 'The Burden Of Hope' by 'Grails' From The Album 'The Burden Of Hope'.


E----------------------------------------------------|
B-----------3~~~~----------3--------4p3--------------|
G-----0-0h2-3~~~~2-2p0-----3----2-------5p3-3/5-7--0-|
D-------0---0----0---------0----3-----------3/5-5--0-|
A----------------------------------------------------|
E-1/3------------------3---------------------------3-|

the second time it's played with a few more notes and minor changes.

E----------------------------------------------------|
B-----------3~~~~----------3----0---4p3--------------|
G-0-----0h2-3~~~~2-2p0-----3----2-0-----5---3/5-7--0-|
D-0-----0---0----0---------0----3-----------3/5-5--0-|
A-------------------------------0-----------0--------|
E-3---3-3--------------3---------------------------3-|

the third time it gets a little distorted and is played harder with a few more notes.

E------------------------------------------------------------|
B-----------3~~~~3---------3----0---4p3----------------------|
G-0-----0h2-3~~~~2-2p0-----3----2-------5-----5-7b(8)b(7)--0-|
D-0-----0---0----0-0-------0----3-------------5-5b(6)b(5)--0-|
A-----------0----0--------------0-------------5--------------|
E-3---3-3--------------3---3-------------------------------3-|
Добавлено: 12.09.2013
Вам также может быть интересно:
Другие материалы по этой песне:
  • Аккорды и текст

Страница создана 12.09.2013
http://primanota.ru/grails/the-burden-of-hope-chords.htm
Привет, Гость.
Предлагаем пройти революционный курс по гитаре.
Подарок от PrimaNota.Ru, забирай!