PrimaNota.ru - самый крупный в мире бесплатный архив песенных текстов, аккордов, табулатур и нот


Graham Davy - Take Five - таба, видео

Регистрация Запомнить меня
Войти через:  Facebook Google Twitter Vk Yandex Mail.ru

Graham Davy - Take Five - таба, видео

Печатать
Просмотров: 123
Уроки эстрадного вокала в Санкт-Петербурге
Авторы музыки: Paul Desmond

Artist: Davy Graham
Track title: Take Five
Album: The Guitar Player
Tuning: DGDGBD (Open G)
Time signature: 5/4

Notes: b=bend up
       h=hammer on
       p=pull off
       t=tenth fret
       v=twelfth fret

This is Davy's version of Dave Brubeck's classic.
I use the capo on the first fret to fit the recording,
but I learnt it from a tape so anyone using a CD
might find it actually without a capo (as tapes
sometimes speed music up and raise the key).
Make it bouncy and jazzy. It needs to be played
fairly quickly. 
I have difficulty fitting the time signature
to tab so I have left it out; but if you know
the track then it shouldn't be too hard to
figure it out. Hope it is of use to someone. Enjoy.
Please email me if you have any comments.

Intro:                
 
                       A
D-|-------------------||--------------0----0----|
B-|---(3)---(3)----1--||------------------------|
G-|----3-----3-----2--||--------3--b5---b5---0--|
D-|----5-----5----(3)-||-----5------------------|
G-|-0-----0-----------||--7---------------------|
D-|-------------0-----||------------------------|

     

  B
|-----------------------|--------------------------|
|-----------------------|--------------------3-3---|
|---2----3--3---3p0-----|---3---3------------3-3---|
|---3----5--5-------3-0-|---5---5--0h3p0---0-----0-|
|------0------0---------|-0---0----------5---------|
|-0---------------------|--------------------------|

 

|---8--------------|------------------|
|-8---8------------|---t--------------|
|-8-----8----7-8-9-|-t---t------5-6-7-|
|-8--------t-------|-v-----v--8-------|
|------------------|------------------|
|------------------|------------------|

 

|----------------------------------|
|---8----------------------6-5-6-7-|
|-8---8--------5-6-7-6-7-8---------|
|-t-----t--7-8---------------------|
|----------------------------------|
|----------------------------------|

 

|---8--------------|---t-------------|
|-8---8------------|-t---t-----------|
|-8-----8----7-8-9-|-t-----t---5-6-7-|
|-8--------t-------|-v-------8-------|
|------------------|-----------------|
|------------------|-----------------|

 

|---------------------------4-|-4h5-0-----------|
|---8----------4---3--------3-|-------1-3p1-----|
|-8---8------3---3---3---3--2-|-------------3p0-|
|-t-----t--3---3-------3----0-|-----------------|
|------------------3----------|-----------------|
|-----------------------------|-----------------|


Repeat B, then A and B, then C and D:

      C                                                                   
D
|--3-------------|----------------||---------------|
|----3-----------|-1--------------||---------------|
|*-----3---3p0-0-|---2-----3p0-0-*||*-------------*|
|*-------0-------|-----3-0-------*||*---0-0-0-----*|
|----------------|----------------||--0---------5--|
|----------------|----------------||----------0----|


Repeat all again, then fade out on A and B

Tabbed by James Calton. james_calton@yahoo.com
     
Добавлено: 31.07.2013
Другие материалы по этой песне:
  • Аккорды и текст

Страница создана 31.07.2013
http://primanota.ru/graham-davy/take-five-chords.htm
Привет, Гость.
Предлагаем пройти революционный курс по гитаре.
Подарок от PrimaNota.Ru, забирай!