PrimaNota.ru - самый крупный в мире бесплатный архив песенных текстов, аккордов, табулатур и нот


Graham Davy - Cry Me A River - таба, видео

Регистрация Запомнить меня
Войти через:  Facebook Google Twitter Vk Yandex Mail.ru

Graham Davy - Cry Me A River - таба, видео

Печатать
Просмотров: 91
Cry Me A River
arranged by Davy Graham
 
From his album 'The Guitar Player'
 
Tuning: EADGBE (Standard)
 
Key: p = pull-off    h = hammer-on
     \ = slide down  / = slide up
     b = bend        ha = harmonics
 
I wasn't too strict about fitting the notes to bars, but
it is close enough and each bar should count 4 beats.
 
Regarding learning to play this, I'd say take the same
approach to any of Davy's pieces: just throw yourself
into it! I see him as quite a rough genius, with
incredible skill and versatility, not to mention
knowledge of so many different styles, and yet often
playing with a seemingly carefree attitude. I find that
I have to throw my hands around the guitar if I want to
keep up with his speed and improvs (even on slower tracks!). Anyway....
 
Hope it works for you! Accept my advance apologies for
any mistakes. Thanks!
 
1
|---7-------------7--5---|------------------------|
|---5-------------5------|---5--------------------|
|---5-------------5------|---5----5---4---2-------|
|---7--------6-----------|---5--------------------|
|--------7---------------|--------------------0---|
|------------------------|------------------------|
 
3
|-----------1------5---3-----5--|-----------------------|
|-------------------------------|---5---------------5---|
|-----2----------------4--------|---5-------7----8------|
|-------------------------------|---5-------6-----------|
|-------------------------------|---3----7--------------|
|--1-----1-----1----------3-----|-----------------------|
 
5
|--5---6--5---5-/-6---5---|-------------------------------|
|--5------------------5---|-----5-------5----7----5-\-----|
|--5----------------------|-----5---7---5----7----5-\-----|
|--7----------5-/-6-------|--5---------------4------------|
|-------------------------|-------------------------------|
|-------------------------|----------------------------0--|
 
7
|--------------------------|-------------------------------|
|------3--------3---1------|-------2--/----------------5---|
|------2--------1------1---|-------2--/-------------7------|
|------3--------2----------|-------1--/----------6---------|
|--------------------------|---0--------------7------------|
|--1--------0--------------|---------------0---------------|
 
9
|---------------8-----------------7---------|
|------------5-----5-----------5-----5------|
|---------5-----------5-----5-----------5---|
|---6--7-----------------6------------------|
|-------------------------------------------|
|-------------------------------------------|
 
10
|-----------8-----------------7p5-----|---------5-----3--5---||
|--------5-----5-----------5----------|-----4---------3------||
|-----5-----------5-----5-------------|-----2---------4------||
|--5-----------------4----------------|-----3----------------||
|-------------------------------------|----------------------||
|----------------------------------0--|--1---------3---------||
 

repeat bars 4 - 7 then:
 
12
||-----------------2h3-------------|-----0--2--3-----------0--|
||-----1-------4---------4---------|--------------0--2--4-----|
||-----2-------2-------------2-----|--------------------------|
||-----2-------4-------------------|--------------------------|
||--0------2--------------------2--|--------------------------|
||---------------------------------|--0-----------------------|
 
14
|------2--0--3---2----0---|-------3---5---b5---5---3---5---|
|------0------------------|--------------------------------|
|------0------------------|--------------------------------|
|------1------------------|--------------------------------|
|---2------------2--------|--------------------------------|
|-------------------------|---0----------------------------|
 
16
|------------5-------5---|---3-----------------3---|
|---------5----------4---|---5-------5---------5---|
|------5-------------4---|---4----------4------4---|
|---5------------4-------|-------5---------4-------|
|------------------------|-------------------------|
|------------------------|-------------------------|
 
18
|----------------------------|------2--0--2--0--2--0--3--0---|
|-----------1---1---0--------|------0------------------------|
|-----------3---3---2--------|------0------------------------|
|-----------2---2---1--------|---2---------------------------|
|---0---3----------------2---|-------------------------------|
|----------------------------|-------------------------------|
 
20
|-----------------------|-------7-------------5-------------|
|-----3--3----------3---|-------5---5---------5---5---------|
|-----1--1----------1---|-------5------5------5------5------|
|--2---------0------2---|---7-------------6-------------6---|
|----------------1------|-----------------------------------|
|-----------------------|-----------------------------------|
 
22
|-----------7p5h7------7p5------|-----------5-----3--5--|
|--------5-------------5--------|-----1-----------3-----|
|-----5----------------5--------|-----2-----------4-----|
|--5----------------4-----------|-----------------------|
|-------------------------------|-----------------------|
|----------------------------0--|--1-----1-----3--------|
 
24
|----------------------|---5--6--5---5-/-6---5---|
|---5--------------5---|---5-----------------5---|
|---5------7---8-------|---5---------------------|
|---5------6-----------|---7---------5-/-6-------|
|---3---7--------------|-------------------------|
|----------------------|-------------------------|
 
26
|----------------------------|------------------------|
|------5-----------5-\-------|------3------3---1------|
|------5--7--5--7--5-\-------|------2------1------1---|
|---5-----------5------------|------3------2----------|
|----------------------------|------------------------|
|------------------------0---|---1------0-------------|
 
28
|------------------2h3------|-------3---3------------|
|-------1-------4-----------|-------5------5---------|
|-------2-------2-------0---|-------4---------4------|
|-------2-------4-----------|---2----------------2---|
|---0-------2---------------|------------------------|
|---------------------------|------------------------|
 
30
|--------------------------------|-----0--5--5-/-6--0--5--|
|------1--1--1-------0--0--0-----|------------------------|
|------3--3--3-------2--2--2-----|-----4--6--6-/-7--4--6--|
|------2--2--2-------1--1--1-----|------------------------|
|--3-------------2------------2--|------------------------|
|--------------------------------|--0---------------------|
 
32
|--3-/-4-/-5---5----------------|-----0--2--3-----------0--|
|---------------------4---------|--------------0--2--4-----|
|--3-/-4-/-5---4---------4------|--------------------------|
|-----------------4-------------|--------------------------|
|----------------------------2--|--------------------------|
|-------------------------------|--0-----------------------|
 
34
|-------3---3---2-------|------2--0--2--0--2--0--3---|
|-------1---1---0-------|------0-----------------0---|
|-------0---0---2-------|------1---------------------|
|-------2-------1-------|------2---------------------|
|---3-------3-------2---|---2------------------------|
|-----------------------|----------------------------|
 
36
|-----2--0h2p0h2p0--3--0--|-----0--7-------7-7----7p5--7p5--|
|-----3-------------3-----|-----1----5-----5-5----5----5----|
|-----2-------------------|-----3------5--------------------|
|--0----------------------|--2-----7-----6------5------4----|
|-------------------------|---------------------------------|
|-------------------------|---------------------------------|
 
38 
|----------------5-------3---5---||
|--5-\-------1-----------3-------||
|--5-\-------2-----------4-------||  repeat bars 4 - 7, then:
|--------------------------------||
|--------------------------------||
|--------1-----------3-----------||
 
39
||--------------------2------|------------------------------|
||--------------------1------|-----4-\-3---1-------3--1-----|
||--------------------2------|-----2-------2-------1-----1--|
||--------------2--1---------|-----3-------3-------2--------|
||--0-----0--3---------------|------------------------------|
||-----0------------------0--|--1--------------0------------|
 
41
|--------------------2-------|--------------------------|
|--------------------1-------|-------3-------3---1------|
|--------------------2-------|-------2-------1------1---|
|--------------2--1----------|-------3-------2----------|
|--0-----0--3------------0---|--------------------------|
|-----0----------------------|---1-------0--------------|
 
43
|--------------------2--------------|--------|-----------------|
|-----------------1-----1-----------|-----3--|-----b3--0h1-----|
|--------------2-----------2-----2--|-----2--|------1-------2--|
|--------2--1-----------------1-----|-----3--|------2----------|
|--0--3-----------------------------|--------|-----------------|
|-----------------------------------|--1-----|--0--------------|
 
46
|------------------8------|-------7----------------ha12--------|
|---------------5-----9---|------------------------------ha12--|
|------------5------------|------------------------------------|
|---------7---------------|------------------------------------|
|------7------------------|---0-------------ha12---------------|
|---5---------------------|-----------ha12---------------------|

________________________________________________________________________________
     
Добавлено: 19.09.2013
Вам также может быть интересно:
Другие материалы по этой песне:
  • Аккорды и текст

Страница создана 19.09.2013
http://primanota.ru/graham-davy/cry-me-a-river-chords.htm
Привет, Гость.
Предлагаем пройти революционный курс по гитаре.
Подарок от PrimaNota.Ru, забирай!