PrimaNota.ru - самый крупный в мире бесплатный архив песенных текстов, аккордов, табулатур и нот


Graham Davy - Anji - таба, видео

Регистрация Запомнить меня
Войти через:  Facebook Google Twitter Vk Yandex Mail.ru

Graham Davy - Anji - таба, видео

Печатать
Просмотров: 105
Artist: Davy Graham
Song : Anji (Fire In The Soul 1999)
Tuning: Standard
Transcriber: Phil Champ (phil.champ@ntlworld.com)

"Bert [Jansch] played Anji all wrong! Still does." (Martin Carthy,
Mojo magazine, July 2000).

r = bend string a semitone and release



                                                       4x
E||--------------------------|-------------------------||
B||---------0h1----0---------|--0h-1-----0-------------||
G||*------2-----2------------|--------2---------------*||
D||*-------------------------|------------------------*||
A||---0-----0----------------|-------------------------||
E||----------------3----3----|--0h-1-----1--0----0-----||



|-----------------------|--------0--------------0-------|
|--1----1h-0------------|--------------0----------------|
|---------------2----1--|--0h-1-----------0h-1----------|
|--2----2h-0------------|-------------------------------|
|---------------3----2--|-------------------------------|
|-----------------------|--0--------0-----0--------0----|



|-----------------------|--5----4----------------|
|--1----1h-0------------|--0----3------1------0--|
|---------------2----1--|------------------------|
|--2----2h-0------------|-----------2------0-----|
|---------------3----2--|------------------------|
|-----------------------|------------------------|



|-----------------------|--------0-----------0-------|
|--1----1h-0------------|-----------------3----------|
|---------------2----1--|--0h-1--------1-------------|
|--2----2h-0------------|----------------------------|
|---------------3----2--|----------------------------|
|-----------------------|--0--------0-----0-----0----|



|--------0----------0----|-----------------------|
|----------------3-------|--1----1h-0------------|
|--0h-1-------1----------|---------------2----1--|
|------------------------|--2----2h-0------------|
|------------------------|---------------3----2--|
|--0-------------0-------|-----------------------|



|-----------------------||--------------------------|
|-----------------------||---------0h1----0---------|
|--2--------------------||*------2-----2------------|
|-----------------------||*-------------------------|
|--3----0---------------||---0-----0----------------|
|----------3----1----0--||----------------3----3----|


                         4x
|-------------------------||----------------------|
|--0h-1-----0-------------||-------3r---1---------|
|--------2---------------*||-----------------2----|
|------------------------*||----------------------|
|-------------------------||--0-------------------|
|--0h-1-----1--0----0-----||----------------------|



|-------------------0----|----------------------|
|--3h-1--3h-1--3----1----|-------3r---1---------|
|------------------------|--2--------------2----|
|------------------------|----------------------|
|--0-----0-----0---------|--0-------------------|
|------------------------|----------------------|



|-------------------0----|-----------------------|
|-------------------1----|-------3r-3r-1---------|
|--------1-----2----2----|--2---------------2----|
|-------------------2----|-----------------------|
|--------------0---------|--0--------------------|
|--1--0-----0------------|-----------------------|



|--------------------0-----|----------------------|
|--1--3h-1--3h-1--3--1--3--|-------3r---1---------|
|--------------------------|--2--------------2----|
|--------------------------|----------------------|
|-----0-----0-----0-----0--|--0-------------------|
|--------------------------|----------------------|



|-------------------0----||-------------------------|
|-------------------1----||---------1-----0---------|
|--------1-----2----2----||*------2----2------------|
|-------------------2----||*------------------------|
|--------------0---------||---0-----0---------------|
|--1--0-----0------------||---------------3----3----|


                         4x
|-------------------------||------------------------|
|--0h-1-----0-------------||---1----1h-0------------|
|--------2---------------*||*---------------2----1--|
|------------------------*||*--2----2h-0------------|
|-------------------------||----------------3----2--|
|--0h-1-----1--0----0-----||------------------------|


                                3x
|--------0--------------0--------||-----------------------|
|--------------0-----------------||--1----1h-0------------|
|--0h-1-----------0h-1----------*||---------------2----1--|
|-------------------------------*||--2----2h-0------------|
|--------------------------------||---------------3----2--|
|--0--------0-----0--------0-----||-----------------------|



|-----------------------||--------------------------|
|-----------------------||---------0h1----0---------|
|--2--------------------||*------2-----2------------|
|-----------------------||*-------------------------|
|--3----0---------------||---0-----0----------------|
|----------3----1----0--||----------------3----3----|


                         3x
|-------------------------||------------------------|
|--0h-1-----0-------------||------------------------|
|--------2---------------*||--2----2----2h-0--------|
|------------------------*||--1----1----1h-0--------|
|-------------------------||------------------3h-0--|
|--0h-1-----1--0----0-----||------------------------|



|------------------0----||
|------------------1----||
|------------------2----||
|------------------2----||
|-------------0----0----||
|--0----3/-4------------||


     
Добавлено: 18.09.2013
Другие материалы по этой песне:
  • Аккорды и текст

Страница создана 18.09.2013
http://primanota.ru/graham-davy/anji-chords.htm
Привет, Гость.
Предлагаем пройти революционный курс по гитаре.
Подарок от PrimaNota.Ru, забирай!