PrimaNota.ru - самый крупный в мире бесплатный архив песенных текстов, аккордов, табулатур и нот


Graham Davy - Angi - таба, видео

Регистрация Запомнить меня
Войти через:  Facebook Google Twitter Vk Yandex Mail.ru

Graham Davy - Angi - таба, видео

Печатать
Просмотров: 110
Авторы музыки: Davy Graham

Artist: Davy Graham
Song : Angi (The Guitar Player, 1963)
Tuning/Timing: Standard, 4/4
Transcriber: Phil Champ

Davy or Davey? Angi or Anji? It was Davy and Angi on the Guitar Player
LP in 1963, but it had changed to Davey and Anji by the time All That
Moody was released in 1976. Who knows?

"Bert [Jansch] played Anji all wrong! Still does." (Martin Carthy,
Mojo magazine, July 2000).


r = bend string a semitone and release
                                                                               

                                     
3x                                  
E||-----------------------------------||--------------------0---------0---|
B||--------0h1---0-----0h1---0--------||--1--1p0----------------0---------|
G||*-----2-----2-----------2---------*||----------2--1--0h1-------0h1-----|
D||*---------------------------------*||--2--2p0--------------------------|
A||---0----0--------------------------||----------3--2--------------------|
E||--------------3--3--0h1---1-0--0---||----------------0-----0---0-----0-|


                                                              
|----------------5--4---------|--------------------0-------0---|
|--1--1p0--------0--3---1---0-|--1--1p0------------------3-----|
|----------2--1---------------|----------2--1--0h1-----1-------|
|--2--2p0-------------2---0---|--2--2p0------------------------|
|----------3--2---------------|----------3--2------------------|
|-----------------------------|----------------0-----0---0---0-|


                                                                  3x
|----------------------------||-----------------------------------||
|--1--1p0--------------------||--------0h1---0-----0h1---0--------||
|----------2--1--2-----------||*-----2-----2-----------2---------*||
|--2--2p0--------------------||*---------------------------------*||
|----------3--2--3--0--------||---0----0--------------------------||
|----------------------3-1-0-||--------------3--3--0h1---1-0--0---||


                                                            
|-------------------------0-----|-------------------------0--|
|-----3r-1----1-3p1-3p1-3p1-----|-----3r-1----------------1--|
|-----2-----2---2---2---2-----2-|-----2-----2------1---2--2--|
|-------------------------------|-------------------------2--|
|--0------------0---0---0---0---|--0-------------------0--0--|
|-------------------------------|--------------1p0---0-------|


                                                              
|---------------------------0-----|-------------------------0--|
|-----3r-3r-1---1-3p1-3p1-3p1-----|-----3r-1----------------1--|
|-----2--2----2---2---2---2-----2-|-----2-----2------1---2--2--|
|---------------------------------|-------------------------2--|
|--0--------------0---0---0---0---|--0-------------------0--0--|
|---------------------------------|--------------1p0---0-------|


                                                                        
2x
|----------------------------------||---------------------0---------0----||
|--------0h1---0-----0h1---0-------||---1--1p0----------------0----------||
|*-----2-----2-----------2---------||*----------2--1--0h1-------0h1-----*||
|*---------------------------------||*--2--2p0--------------------------*||
|---0----0-------------------------||-----------3--2---------------------||
|--------------3--3--0h1---1-0--0--||-----------------0-----0---0-----0--||


                                                                  2x
|----------------------------||-----------------------------------||
|--1--1p0--------------------||--------0h1---0-----0h1---0--------||
|----------2--1--2-----------||*-----2-----2-----------2---------*||
|--2--2p0--------------------||*---------------------------------*||
|----------3--2--3--0--------||---0----0--------------------------||
|----------------------3-1-0-||--------------3--3--0h1---1-0--0---||


                              
|--------------------------0--||
|--------------------------1--||
|--2--2--2p0---------------2--||
|--1--1--1p0---------------2--||
|------------3h0--------0--0--||
|----------------0--3/4-------||


     
Добавлено: 21.11.2013
Другие материалы по этой песне:
  • Аккорды и текст

Страница создана 21.11.2013
http://primanota.ru/graham-davy/angi-chords.htm
Привет, Гость.
Предлагаем пройти революционный курс по гитаре.
Подарок от PrimaNota.Ru, забирай!