PrimaNota.ru - самый крупный в мире бесплатный архив песенных текстов, аккордов, табулатур и нот


Graham Central Station - Pow - бас-таба, видео

Регистрация Запомнить меня
Войти через:  Facebook Google Twitter Vk Yandex Mail.ru

Graham Central Station - Pow - бас-таба, видео

Печатать
Просмотров: 162
Here is the main riff from Graham Central Station's POW.  At least how I play it.  Any 
or corrections are more than welcome.

S  S S S S     P

---------------9h7--x---|
------------------------|
5h7------5h7-xx----x----|
---0-0-0----------------|

S  S S S   S P  S P

-----------------------|
-------------5----7----|
5h7--------------------|
---0-0-0--/3---/5------|

S= Slap
P= Pop
Добавлено: 20.06.2012
Другие материалы по этой песне:

Страница создана 26.02.2012
http://primanota.ru/graham-central-station/pow-chords.htm
Привет, Гость.
Предлагаем пройти революционный курс по гитаре.
Подарок от PrimaNota.Ru, забирай!