PrimaNota.ru - самый крупный в мире бесплатный архив песенных текстов, аккордов, табулатур и нот


Graham Central Station - Hair - бас-таба, видео

Регистрация Запомнить меня
Войти через:  Facebook Google Twitter Vk Yandex Mail.ru

Graham Central Station - Hair - бас-таба, видео

Печатать
Просмотров: 84
Intro______________________________________________________________
G|------------------------------1/7-------------------------9p7---7h9-|
D|------------5---7----------1/7-----------5---7----------------9-----|
A|-5h7---------------0-5-0-7-----------------------0-5-0-7------------|
E|-----0--0-3---5---x---------------0--0-3---5---x--------------------|

G|------------------------------1/7-------------------------9-9/12---|
D|------------5---7----------1/7-----------5---7---------------------|
A|-------------------0-5-0-7-----------------------0-5-0-7-----------|
E|-0--0--0-3---5---x---------------0--0-3---5---x--------------------|

G|------------------------------1/7----------------------------|
D|------------5---7----------1/7-----------5---7---------------|
A|-------------------0-5-0-7-----------------------0-5-0-7p5---|
E|-0--0--0-3---5---x---------------0--0-3---5---x------------7-|

G|------------------------------1/7-------------------------12-12/13-|
D|------------5---7----------1/7-----------5---7------------11-11/12-|
A|-------------------0-5-0-7-----------------------0-5-0-7-----------|
E|-0--0--0-3---5---x---------------0--0-3---5---x--------------------|

Main part_____________________________________________________________
G|------------------------------1/7-------------------------9p7---7h9-|
D|------------5---7----------1/7-----------5---7----------------9-----|
A|-------------------0-5-0-7-----------------------0-5-0-7------------|
E|--0--0--0-3---5---x---------------0--0-3---5---x--------------------|

G|------------------------------1/7-------------------------9-|
D|------------5---7----------1/7-----------5---7--------------|
A|-------------------0-5-0-7-----------------------0-5-0-7----|
E|--0--0--0-3---5---x---------------0--0-3---5---x------------|

G|------------------------------1/7-------------------------9p7---7h9-|
D|------------5---7----------1/7-----------5---7----------------9-----|
A|-------------------0-5-0-7-----------------------0-5-0-7------------|
E|--0--0--0-3---5---x---------------0--0-3---5---x--------------------|

G|------------------------------1/7----------------------------|
D|------------5---7----------1/7-----------5---7---------------|
A|-------------------0-5-0-7-----------------------0-5-0-7p5---|
E|-0--0--0-3---5---x---------------0--0-3---5---x------------7-|

Break
G|----let-ring-Let-ring-Let-ring-Let-ring-Let-ring-Let-ring--------|
D|--------5---------5---------7---------7-------9-------9---9------|
A|-----------------------------------------------------------------|
E|---0-0x------0-0x------3-3x------3-3x-----5-5x---5-5x--------9/1-|

Back on the main part NB: endings may vary.

And there is a keyboard part, but there is no bass in there.
Добавлено: 22.02.2012
Другие материалы по этой песне:

Страница создана 22.02.2012
http://primanota.ru/graham-central-station/hair-chords.htm
Привет, Гость.
Предлагаем пройти революционный курс по гитаре.
Подарок от PrimaNota.Ru, забирай!