PrimaNota.ru - самый крупный в мире бесплатный архив песенных текстов, аккордов, табулатур и нот


Graham Bonnet - Night Games - бас-таба, видео

Регистрация Запомнить меня
Войти через:  Facebook Google Twitter Vk Yandex Mail.ru

Graham Bonnet - Night Games - бас-таба, видео

Печатать
Просмотров: 167
Night Games
Recorded and released in 1981 by Graham Bonnet (ex Rainbow frontman) reaching number 6 
in UK charts.
Several famous rock musicians on original recording
Cozy Powell on Drums, Jon Lord (Deep Purple) on keyboards
and Mick Moody (Whitesnake) on lead guitar.
Tabbed here by bass50611
More or less as per record I think.
This guy has a tremendous voice and the video on
youtube is worth a view - great song
Any comments email bass254@btinternet.com

Intro:
   .      .      .      .      .      .      .      .      .
G|--------------------------------------------------------------------|
D|--------------------------------------------------------------------|
A|-7------5------3------5------7------5------3------5------7----------|
E|----------------------------------------------------------------000-|

Verse:
G|----------------------------------------------------------------------|
D|----------------------------------------------------------------------|
A|----------------------------------------------7-5---3-3-3-3---2-2-2-2-|
E|-0-0-0-0-0-0-0-0-0-0-0-0-0-0-0-0-0-0-0-0-0-0--------------------------|

G|-------------------------------------------------------------------------|
D|-------------------------------------------------------------------------|
A|---------5-5-5-5---------5-5-5-5---7-7-7-7---5-5-5-5---3-3-3-3---2-2-2-2-|
E|-3-3-3-3---------3-3-3-3-------------------------------------------------|

Chorus:
G|-----------------------------------------------------------------------|
D|-----------------------------------------------------------------------|
A|-7-7-7-7-7-7-7-7---5-5-5-5-5-5-5-5---3-3-3-3-3-3-3-3---2-2-2-2-2-2-2-2-|
E|-----------------------------------------------------------------------|

G|-----------------------------------------------------|
D|-----------------------------------------------------|
A|-----------------5-5-5-5-5-5-5-5---3-3-3-3---2-2-2-2-|
E|-3-3-3-3-3-3-3-3-------------------------------------|

Solo:
G|---------------------------------------------------------------------|
D|---------------------------------------------------------------------|
A|-----------------5-5-5-5-5-5-5-5---3-3-3-3-3-3-3-3---2-2-2-2-2-2-2-2-|
E|-0-0-0-0-0-0-0-0-----------------------------------------------------|

G|-------------------------|
D|--2------2------5------2-|
A|-2------2------2------2--|
E|-------------------------|

Verse 2:
G|--------------------------------------------------------------------|
D|--------------------------------------------------------------------|
A|--------------------------------------------7-5---3-3-3-3---2-2-2-2-|
E|-0-0-0-0-0-0-0-0-0-0-0-0-0-0-0-0-0-0-0-0-0-0------------------------|

G|--------------------------------------------------------------------4-3h4-|
D|--------------------------------------------------------------------------|
A|---------5-5-5-5---------5-5-5-5---7-7-7-7---5-5-5-5---3-3-3-3---2-2-2----|
E|-3-3-3-3---------3-3-3-3--------------------------------------------------|

Chorus 2:
G|----------------------------------------------------------------------|
D|-2-2-2-2-2-2-2-2------------------------------------------------------|
A|------------------5-5-5-5-5-5-5-5---3-3-3-3-3-3-3-3---2-2-2-2-2-2-2-2-|
E|----------------------------------------------------------------------|

G|---------------------------------------------------------------------|
D|-5-5-5-5-5-5-5-5-----------------------------------------------------|
A|-----------------5-5-5-5-5-5-5-5---3-3-3-3-3-3-3-3---2-2-2-2-2-2-2-2-|
E|---------------------------------------------------------------------|

Repeat Chorus 2 to Fade/End
Добавлено: 30.07.2013
Другие материалы по этой песне:
  • Аккорды и текст

Страница создана 30.07.2013
http://primanota.ru/graham-bonnet/night-games-chords.htm
Привет, Гость.
Предлагаем пройти революционный курс по гитаре.
Подарок от PrimaNota.Ru, забирай!