PrimaNota.ru - самый крупный в мире бесплатный архив песенных текстов, аккордов, табулатур и нот


Graffiti6 - Lay Me Down - аккорды и текст, видео

Регистрация Запомнить меня
Войти через:  Facebook Google Twitter Vk Yandex Mail.ru

Graffiti6 - Lay Me Down - аккорды и текст, видео

Печатать
Просмотров: 115
Lay Me Down
Graffiti6
-------------------------------------------------------------------------------
                            Lay Me Down - Graffiti6
-------------------------------------------------------------------------------
Tabbed by: ternst
E-mail: ternst61@gmail.com

Tuning: Standard (no capo)

| b   Bend           Guitar 1: Chords
| h   Hammer-on      Guitar 2: Tab

INTRO:

   E
e|--9--7-------9--7-------9--12--11-----------9--7---------|
B|--------9b---------9b--------------9b-------------9b-----|
G|---------------------------------------------------------|
D|---------------------------------------------------------|
A|---------------------------------------------------------|
E|---------------------------------------------------------|

E


E
Lay me down
E
Lay me down          (guitar 2)
          A         
Lay me down     e|-----------5---4---|  
                B|---2---5-----------|  x2
                G|-------------------|   
          E
Lay me down


E
Close your eyes
E
Close your eyes         
          A           
Side by side      e|-----------5---4---|
                  B|---2---5-----------|  x2
                  G|-------------------|   
              E
We close our eyes


G#m
When I'm tired you lift me baby
       F#m
In the morning time when the light gets darker
     G#m
It's hard to lift my head up
                 B
Baby, you're the light that's shining through I can see your

[no chord]
Stars appear


E
Lay with me
E
And I won't speak     
          A     
I need no words   e|-----------5---4---|
                  B|---2---5-----------|  x1
                  G|-------------------|   
              E
Just lay with me


E
I said take my soul
E
Let it grow
        A
Let it grow
        E
Take my soul


          G#m
You know, when I'm tired you lift me baby
       F#m
In the morning time when the light gets darker
     G#m
It's hard to lift my head up
                 B                                          E
Baby, you're the light that's shining through like a sea of stars ooo


SOLO:

   E
e|----7----7----7------7----7----7----|            e|----7----7----7----7--7--7--7--7----|
B|--7----7----7----7h9----9----9------|            B|--7----7----7------9--9--9--9--9----|
G|------------------------------------| x3  then   G|------------------------------------|
D|------------------------------------|            D|------------------------------------| 
A|------------------------------------|            A|------------------------------------|
E|------------------------------------|            E|------------------------------------|


E
Lay your life
E
Lay your life
      A
In my hands
              E
I'll take you home

E
Lay your love
E
Lay your love
      A
In my hands
              E
I'll take you home

E
Lay your love
E
Lay your love
      A
In my hands
              E
I'll take you home

OUTRO:

   E
e|--9--7-------9--7-------9--12--11-----------9--7---------|
B|--------9b---------9b--------------9b-------------9b-----|
G|---------------------------------------------------------|
D|---------------------------------------------------------|
A|---------------------------------------------------------|
E|---------------------------------------------------------|
Добавлено: 13.08.2015
Другие материалы по этой песне:
  • Аккорды и текст

Страница создана 15.01.2014
http://primanota.ru/graffiti6/lay-me-down-chords.htm
Привет, Гость.
Предлагаем пройти революционный курс по гитаре.
Подарок от PrimaNota.Ru, забирай!