PrimaNota.ru - самый крупный в мире бесплатный архив песенных текстов, аккордов, табулатур и нот


Gracenotes - When I Dream About You - бас-таба, видео

Регистрация Запомнить меня
Войти через:  Facebook Google Twitter Vk Yandex Mail.ru

Gracenotes - When I Dream About You - бас-таба, видео

Печатать
Просмотров: 57
-------------------------------------------------------------------------------
                      WHEN I DREAM ABOUT YOU - GRACENOTE
-------------------------------------------------------------------------------
Tabbed by: Tanchingco darwin
E-mail: tanchingco_darwin@yahoo.com

para sa mahal ku...

Tuning: standard tunning E,A,D,G

G|---------------------------------------------------------------------------|
D|---------------------------------------------------------------------------|
A|-1/9\5--5-5-5-5-5-5-5-5----------------------------------------------------|
E|------------------------5-5-5-5-5-5-5-5--7-7-7-7-7-7-7-7--3-3-3-3-3-3-3-3--|

G|---------------------------------------------------------------------------|
D|---------------------------------------------------------------------------|
A|---5-5-5-5-5-5-5-5---------------------------------------------------------|
E|---------------------5-5-5-5-5-5-5-5--7-7-7-7-7-7-7-7-------3--3----5--5---|

VERSE 1
There was a time in my life
When I opened my eyes and there you were,
You were more than a dream,
I could reach out a touch you,
Boy that was long ago...
G|---------------------------------------------------------------------------|
D|---------------------------------------------------------------------------|
A|---5-5-5-5-5-5-5-5---------------------------------------------------------|
E|---------------------5-5-5-5-5-5-5-5--7-7-7-7-7-7-7-7---3-3-3-3-3-3-3-3----|

G|---------------------------------------------------------------------------|
D|---------------------------------------------------------------------------|
A|---5-5-5-5-5-5-5-5---------------------------------------------------------|
E|---------------------5-5-5-5-5-5-5-5--7-7-7-7-7-7-7-7---3-3-3-3-3-3-3-3----|


REFRAIN
There are something's that I guess I'll never know...
G|-----------------------------------------------------------------|
D|-----------------------------------------------------------------|
A|--------------------------------5-----4----2---------------------|
E|----3~---------------5~-----------------------------3~-----------|

G|---------------------------------------------------------------------------|
D|---------------------------------------------------------------------------|
A|---------------------------------------------------------------------------|
E|----3-3-3-3-3-3-3-3-3-3-3-3-3-3-3-3----5-5-5-5-5-5-5-5-5-5-5-5-5-5-5-5-----|


CHORUS 
When I dream about you,
That's when everything's all right...
G|-----------------------------------------------------------------------------------|
D|-----------------------------------------------------------------------------------|
A|-------------------------------------------------------5-5-5-5---4-4-4-4---2-2-2---|
E|--7-7-7-7-7-7-7-7---3-3-3-3-3-3-3-3---5-5-5-5-5-5-5-5------------------------------|

G|-----------------------------------------------------------------|
D|-----------------------------------------------------------------|
A|---------------------------5-5-5-5-5-5-5-5-----------------------|
E|---3-3-3--3-3-3-3-3-3-3-3--------------------5-5-5-5-5-5-5-5-----|

When I dream about you,
Girl you never go away,
Just close my eyes...
G|-----------------------------------------------------------------------------------|
D|-----------------------------------------------------------------------------------|
A|-------------------------------------------------------5-5-5-5---4-4-4-4---2-2-2---|
E|--7-7-7-7-7-7-7-7---3-3-3-3-3-3-3-3---5-5-5-5-5-5-5-5------------------------------|

G|-----------------------------------------------------------------|
D|-----------------------------------------------------------------|
A|---------------------------5-5-5-5-5-5-5-5-----------------------|
E|---3-3-3--3-3-3-3-3-3-3-3--------------------5-5-5-5-5-5-5-5-----|

INTERLUDE

G|-----------------------------------------------------------------------------------------|
D|-----------------------------------------------------------------------------------------|
A|---5-5-5-5-5-5-5-5----------------------------------------------------2-2----4-4--4\0----|
E|---------------------5-5-5-5-5-5-5-5--7-7-7-7-7-7-7-7-----3-3---5-5----------------------|

VERSE 2
How can I get you to see
That I'm falling apart
Since you've been gone,
I can never be sure
I could ever let go
Your love is much to strong...
G|---------------------------------------------------------------------------|
D|---------------------------------------------------------------------------|
A|---5-5-5-5-5-5-5-5---------------------------------------------------------|
E|---------------------5-5-5-5-5-5-5-5--7-7-7-7-7-7-7-7---3-3-3-3-3-3-3-3----|

G|---------------------------------------------------------------------------|
D|---------------------------------------------------------------------------|
A|---5-5-5-5-5-5-5-5---------------------------------------------------------|
E|---------------------5-5-5-5-5-5-5-5--7-7-7-7-7-7-7-7---3-3-3-3-3-3-3-3----|

REFRAIN 2
There are something's that I guess I'll never know
G|------------------------------------------------------------------------------------------|
D|------------------------------------------------------------------------------------------|
A|----------------------------------------------5-x--5-x--4-x--4-x----3-x--3-x--3-x--3-x----|
E|--3-x--3-x--3-x--3-x----5-x--5-x--5-x--5-x------------------------------------------------|

G|---------------------------------------------------------------------------|
D|---------------------------------------------------------------------------|
A|---------------------------------------------------------------------------|
E|----3-3-3-3-3-3-3-3-3-3-3-3-3-3-3-3----5-5-5-5-5-5-5-5-5-5-5-5-5-5-5-5-----|


CHORUS 2
When I dream about you,
That's when everything's all right...
G|-----------------------------------------------------------------------------------|
D|-----------------------------------------------------------------------------------|
A|-------------------------------------------------------5-5-5-5---4-4-4-4---2-2-2---|
E|--7-7-7-7-7-7-7-7---3-3-3-3-3-3-3-3---5-5-5-5-5-5-5-5------------------------------|

G|-----------------------------------------------------------------|
D|-----------------------------------------------------------------|
A|---------------------------5-5-5-5-5-5-5-5-----------------------|
E|---3-3-3--3-3-3-3-3-3-3-3--------------------5-5-5-5-5-5-5-5-----|

When I dream about you,
Girl you never go away,
Just close my eyes...
G|-----------------------------------------------------------------------------------|
D|-----------------------------------------------------------------------------------|
A|-------------------------------------------------------5-5-5-5---4-4-4-4---2-2-2---|
E|--7-7-7-7-7-7-7-7---3-3-3-3-3-3-3-3---5-5-5-5-5-5-5-5------------------------------|

G|-----------------------------------------------------------------|
D|-----------------------------------------------------------------|
A|---------------------------5-5-5-5-5-5-5-5-----------------------|
E|---3-3-3--3-3-3-3-3-3-3-3--------------------5-5-5-5-5-5-5-5-----|

ADLIB

G|------------------------------------------------------------------------|
D|------------------------------------------------------------------------|
A|--------------------------------------------2~----------4~--------------|
E|---3~----------------5~-------------------------------------------------|


G|---------------------------------------------------------------------------|
D|---------------------------------------------------------------------------|
A|---------------------------------------------------------------------------|
E|-----3~------------------5~----------------3~-----------5-5-5-5-5-5-5-5----|

SOLO PART
G|-----------------------------------------------------------------------------------|
D|-----------------------------------------------------------------------------------|
A|----------------5-------------------5------------------5----7--7--7-7--7--7--7-7---|
E|---5--7--5--7----------5--7--5--7----------5--7--5--7------------------------------| REPEAT 4x

(REPEAT REFRAIN AND THEN CHORUS)

OUTRO
G|-------------------------------------------------------------------------|
D|-------------------------------------------------------------------------|
A|---5-5-5-5-5-5-5-5-------------------------------------------------------|
E|---------------------5-5-5-5-5-5-5-5--7-7-7-7-7-7-7-7-------3--3----5~---|









| /  slide up
| \  slide down
| h  hammer-on
| p  pull-off
| ~  vibrato
| +  harmonic
| x  Mute note
===============================================================================
Добавлено: 08.06.2016
Другие материалы по этой песне:
  • Аккорды и текст

Страница создана 08.06.2016
http://primanota.ru/gracenotes/when-i-dream-about-you-chords.htm
Привет, Гость.
Предлагаем пройти революционный курс по гитаре.
Подарок от PrimaNota.Ru, забирай!