PrimaNota.ru - самый крупный в мире бесплатный архив песенных текстов, аккордов, табулатур и нот


Grace Potter & the Nocturnals - Never Go Back - таба, видео

Регистрация Запомнить меня
Войти через:  Facebook Google Twitter Vk Yandex Mail.ru

Grace Potter & the Nocturnals - Never Go Back - таба, видео

Печатать
Просмотров: 83
Never Go Back
Performed By: Grace Potter and The Noctournals
Album: The Lion The Beast The Beat

Tabbed by: Trevor Seyfried
Email: tseyf7@gmail.com

Tuning: Standard

Notation:
() = Muted note
PM = Palm mute ( . . = continue palm mute)
b  = Bend ( ex. 5b6 for full bend or 5b for half bend)
/  = Slide
~  = Let Ring
t  = Tremolo Picking

This is my first tab, so I would appreciate any feedback. I have played along with this
tab multiple times and I think it is mostly correct.

  Intro/verse -
  4 x Riff A:
e|----------------------------------------------------------|
B|----------------------------------------------------------|
G|----------------------------------------------------------|
D|------5---5--------5---5----------3---3--------7---7------|
A|----------------------------------------------------------|
E|--3-3---3------(3)3--3---3----1-1---1------(5)5---5---5---|

 Verse
 4 x Riff B:
  PM . . . . . . . . . . . . . . . .
e|-----------------------------------|
B|-----------------------------------|
G|-----------------------------------|
D|--0-0-0-3----3-0----3-3-0----5-3-0-|
A|-----------------------------------|
E|-----------------------------------|

 Pre-Chorus

e|-----------------------------|
B|-----------------------------|
G|-----------------------------|
D|-3~--3/7---7---7-7-----------|
A|-3~--1/5---7---5-5-----------|
E|-1~--1/5---5---5-5-----------|

 Chorus

    Oh    No      Oh    No      I never go back there no more
e|----------------------------------------------------------|
B|----------------------------------------------------------|
G|----------------------------------------------------------|
D|--5-5---5-5-----5-5---5-5-----3-3---3-3-----3-3-----3-3---|
A|--5-5---5-5-----5-5---5-5-----3-3---3-3-----3-3-----3-3---|
E|--3-3---3-3-----3-3---3-5-----1-1---1-1-----1-1-----1-1---|

  Oh    No      Oh    No      I never go back there no more
----------------------------------------------------------|
----------------------------------------------------------|
----------------------------------------------------------|
--7-7---7-7-----7-7---7-7-----5-5---5-5-----5-5-----5-5---|
--7-7---7-7-----7-7---7-7-----5-5---5-5-----5-5-----5-5---|
--5-5---5-5-----5-5---5-5-----3-3---3-3-----3-3-----3-3---|


 Post-Chorus (1:08)

e|--------------------------------------------------------|
B|-6h8-8b-8b---6-8-8b9b8-6----6-8------------6-8b9b8-6----|
G|-------------------------7b-----5b-5b-5b-5-----------7--|
D|--------------------------------------------------------|
A|--------------------------------------------------------|
E|--------------------------------------------------------|

------------------------------------------------------------|
--6-8-8b-8b-8b---6-8-8b9b8-6----6-8-8b~----6-8-8b~----------|
-----------------------------7b-----------------------------|
------------------------------------------------------------|
------------------------------------------------------------|
------------------------------------------------------------|

 Breakdown (2:30)

Here is the main riff being played:

e|--------------------------------------------------------|
B|--8-8-8-8-8-8-8-8-6-6-6-6-6-6-6-6-5-5-5-5---------------|
G|--------------------------------------------------------|
D|--------------------------------------------------------|
A|--------------------------------------------------------|
E|--------------------------------------------------------|

After that riff is played once, another guitar comes in tremolo picking,
starting with this pattern (listen to get the timing):


e|--------------------------------------------------------|
B|--12t----13t----15t----17t------------------------------|
G|--------------------------------------------------------|
D|--------------------------------------------------------|
A|--------------------------------------------------------|
E|--------------------------------------------------------|

After that, it goes into two more choruses, and a third heavily distorted/phased
guitar comes in playing another riff. Haven't had the chance to tab that out yet.

Song Order:

4 x Riff A
4 x Riff B
Chorus
Post-Chorus
2 x Riff A
4 x Riff B
Chorus
Post-Chorus
Breakdown
2 x Chorus
Post-Chorus
Добавлено: 01.09.2013
Другие материалы по этой песне:
  • Аккорды и текст

Страница создана 01.09.2013
http://primanota.ru/grace-potter-and-the-nocturnals/never-go-back-chords.htm
Привет, Гость.
Предлагаем пройти революционный курс по гитаре.
Подарок от PrimaNota.Ru, забирай!