PrimaNota.ru - самый крупный в мире бесплатный архив песенных текстов, аккордов, табулатур и нот


Govt Mule - Thorazine Shuffle - текст песни, таба, бас-таба, видео

Регистрация Запомнить меня
Войти через:  Facebook Google Twitter Vk Yandex Mail.ru

Govt Mule - Thorazine Shuffle - текст песни, таба, бас-таба, видео

Печатать
Просмотров: 170
Уроки эстрадного вокала в Санкт-Петербурге
Words by Warren Haynes

Music by Matt Abts & Warren Haynes
Transcribed by Marcelo Garcia

          Bm6                  Bm7                 Dmaj7                 E7
      x x 9 7 9 x         x x 9 7 10 x          x x x 7 7 9         x x x 9 9 10

        Bm7XII               Bm6XII
    x x x 14 12 14       x x x 13 12 14

Gtr I (E A D G B E) - 'Slightly Overdriven Guitar w/ Chorus'
Gtr II (E A D G B E) - 'Overdirven Guitar'
Gtr III (E A D G B E) - 'Guitar 2 - last chorus only'

   Intro
    Q=138
   4/4          3/4
    Gtr I
    Wx2          W     4x
||-------------|-------||
||o------------|------o||
||-------------|-------||
||-------------|-------||
||o------------|------o||
||-------------|-------||


  Bm7                             Bm6
 4/4                        3/4        4/4                     3/4
    W           +W           H     Q    +W           W          W
|------------|-------------|----------|------------|----------|------|
|-^10--------|-(10)--------|------^9--|-(9)--------|----------|------|
|-^-7--------|--(7)--------|------^7--|-(7)--------|----------|------|
|-^-9--------|--(9)--------|------^9--|-(9)--------|----------|------|
|------------|-------------|----------|------------|----------|------|
|------------|-------------|----------|------------|----------|------|


  Dmaj7                         E7
 4/4                      3/4         4/4                      3/4
   W          +W           H      Q     +W           W          W
|-^9--------|-(9)--------|------^10--|-(10)--------|----------|------|
|-^7--------|-(7)--------|------^-9--|--(9)--------|----------|------|
|-^7--------|-(7)--------|------^-9--|--(9)--------|----------|------|
|-----------|------------|-----------|-------------|----------|------|
|-----------|------------|-----------|-------------|----------|------|
|-----------|------------|-----------|-------------|----------|------|


   Verse
    Bm7                             Bm6
   4/4                        3/4        4/4                       3/4
      W           +W           H     Q    +W           +W           W
||-------------|-------------|----------|------------|------------|------|
||o-^10--------|-(10)--------|------^9--|-(9)--------|-(9)--------|------|
||--^-7--------|--(7)--------|------^7--|-(7)--------|-(7)--------|------|
||--^-9--------|--(9)--------|------^9--|-(9)--------|-(9)--------|------|
||o------------|-------------|----------|------------|------------|------|
||-------------|-------------|----------|------------|------------|------|


  Dmaj7                         E7
 4/4                      3/4         4/4                         3/4
   W          +W           H      Q     +W            +W           W
|-^9--------|-(9)--------|------^10--|-(10)--------|-(10)--------|------|
|-^7--------|-(7)--------|------^-9--|--(9)--------|--(9)--------|------|
|-^7--------|-(7)--------|------^-9--|--(9)--------|--(9)--------|------|
|-----------|------------|-----------|-------------|-------------|------|
|-----------|------------|-----------|-------------|-------------|------|
|-----------|------------|-----------|-------------|-------------|------|


  Bm7XII                          Bm6XII
 4/4                        3/4         4/4                         3/4
    W           +W           H      Q     +W            +W           W
|-^14--------|-(14)--------|------^14--|-(14)--------|-(14)--------|------|
|-^12--------|-(12)--------|------^12--|-(12)--------|-(12)--------|------|
|-^14--------|-(14)--------|------^13--|-(13)--------|-(13)--------|------|
|------------|-------------|-----------|-------------|-------------|------|
|------------|-------------|-----------|-------------|-------------|------|
|------------|-------------|-----------|-------------|-------------|------|


  Dmaj7                         E7
 4/4                      3/4         4/4
   W          +W           H      Q     +W
|-^9--------|-(9)--------|------^10--|-(10)----|
|-^7--------|-(7)--------|------^-9--|--(9)----|
|-^7--------|-(7)--------|------^-9--|--(9)----|
|-----------|------------|-----------|---------|
|-----------|------------|-----------|---------|
|-----------|------------|-----------|---------|


 Chorus
          E5                                 E5
                                      3/4           4/4
          Gtr II
                                                      >
   +Q   E E E Q  E   E E E E E E E E   E E E E E E   +W           +W
|-(10)-------------|-----------------|-------------|------------|--------|
|--(9)-------------|-----------------|-------------|------------|--------|
|--(9)----9---9----|-----------------|-------9---9-|-(9)--------|-(9)----|
|---------9---9----|-----------------|-------9---9-|-(9)--------|-(9)----|
|---------7---7--5-|-7-8-7-5-7-5-7-5-|---5---7---7-|-(7)--------|-(7)----|
|------------------|-----------------|-7-----------|------------|--------|


                             D
  +W           E E E E E E E E
|------------|-----------------|
|------------|-----------------|
|-(9)--------|---------------7-|
|-(9)--------|---------------7-|
|-(7)--------|-7-5---5---7-----|
|------------|-----7-----------|


       Bm      D        Bm      D        Bm
  +Q   Q  Q.   E   +Q   Q  Q.   E   +Q   Q  H
|----------------|----------------|--------------|
|----------------|----------------|--------------|
|-(7)--4-------7-|-(7)--4-------7-|-(7)--4-------|
|-(7)--4-------7-|-(7)--4-------7-|-(7)--4-------|
|----------------|----------------|--------------|
|----------------|----------------|--------------|


            E5
 4/4               4/4
                >
  E E E E E E E E   +W           +W           +W
|-----------------|------------|------------|--------|
|-----------------|------------|------------|--------|
|-----------9---9-|-(9)--------|-(9)--------|-(9)----|
|-----------9---9-|-(9)--------|-(9)--------|-(9)----|
|-7-5---5---7---7-|-(7)--------|-(7)--------|-(7)----|
|-----7-----------|------------|------------|--------|


                               >
  E E E E E E E E   +Q.   H    E   +W           +W           +W
|-----------------|--------------|------------|------------|--------|
|-----------------|--------------|------------|------------|--------|
|-----------------|--------------|------------|------------|--------|
|-----------------|------------4-|-(4)--------|-(4)--------|-(4)----|
|---7-5---4-------|-------4------|------------|------------|--------|
|-------7---7-5-2-|-(2)----------|------------|------------|--------|


 Interlude
  1.
  N.C.
                                    3/4
  PM    PM--------------------------------------|
  Q  E  E E E E E   Q  Q   E Q   E   E E E  E E E
|-----------------|----------------|--------------|
|-----------------|----------------|--------------|
|-----------------|----------------|--------------|
|-----------------|----9\----------|--------------|
|-----------7---9-|----------7-----|-7-8-7--------|
|-7--7-10---------|-------------10-|-------10-7-7-|


 4/4                                 3/4
  PM--------------------|         PM--------|
  E  E E E E E Q    Q   E E E Q   E   E E E  E Q
|-----------------|-----------------|--------------||
|-----------------|-----------------|-------------o||
|-----------------|-------9---9-----|--------------||
|-----------------|-9\----9---9-----|--------------||
|--------7---9----|-------7---7-----|-7-8-7-------o||
|-7-10------------|--------------10-|-------10-----||


  2.
  Bm7                             Bm6
 4/4                        3/4
  Gtr I
    W           +W           H     Q
|------------|-------------|----------|
|-^10--------|-(10)--------|------^9--|
|-^-7--------|--(7)--------|------^7--|
|-^-9--------|--(9)--------|------^9--|
|------------|-------------|----------|
|------------|-------------|----------|


 4/4
  +W           +W           W
|------------|------------|------|
|-(9)--------|-(9)--------|------|
|-(7)--------|-(7)--------|------|
|-(9)--------|-(9)--------|------|
|------------|------------|------|
|------------|------------|------|


  Dmaj7                         E7
                          3/4
   W          +W           H      Q
|-^9--------|-(9)--------|------^10--|
|-^7--------|-(7)--------|------^-9--|
|-^7--------|-(7)--------|------^-9--|
|-----------|------------|-----------|
|-----------|------------|-----------|
|-----------|------------|-----------|


                             Guitar Solo
 4/4                         3/4
  Gtr II
    W             W           H    Q
|-------------|-------------|------------|
|-------------|-------------|------------|
|-------------|-------------|------------|
|-------------|-------------|------------|
|-------------|-------------|------------|
|-------------|-------------|------7b9===|
|
| Gtr I
|  +W            +W           W
|-(10)--------|-(10)--------|------------|
|--(9)--------|--(9)--------|------------|
|--(9)--------|--(9)--------|------------|
|-------------|-------------|------------|
|-------------|-------------|------------|
|-------------|-------------|------------|


 4/4                        3/4
        ~~~~~~~~~~~~~~~~~~~~~~~~~         ~
  H    +H       +W           +Q   +Q    E E
|-------------|------------|----------------|
|-------------|------------|----------------|
|-------------|------------|------------7---|
|-------------|------------|--------------9-|
|-------------|------------|----------------|
|-7r===(7)----|-(7)--------|-(7)--(7)\------|


 4/4                   3/4
                             |-3-|
  W          W          H    S E E.
|----------|----------|-------------|
|----------|----------|------7p5----|
|----------|----------|----------7--|
|----------|----------|-------------|
|----------|----------|-------------|
|----------|----------|-------------|


 4/4                             3/4
                      >
    ~    ~~~~~~~~~~~~~~~~
                                  |-3-|
  E E E  H     +E    +W           S E E. E E Q
|-----5-(5)----(5)-|-(5)--------|---------------|
|-5h7----7-----(7)-|-(7)--------|-7p5----5-7----|
|------------------|------------|-----7------7--|
|------------------|------------|---------------|
|------------------|------------|---------------|
|------------------|------------|---------------|


 4/4                           3/4
  +E  H    s  Q  S   W          S S E E E E E
|------------------|----------|-----5-5---5----|
|------------------|----------|-5s7-----7------|
|-(7)-4----7\------|----------|----------------|
|------------------|----------|----------------|
|------------------|----------|----------------|
|------------------|----------|----------------|


 4/4                                   3/4
        ~~~                                         ~
  Q    +Q.   Q.     H    E E    +E  E   E  S  S E E Q
|-7b8r=(7)--------|--------9b10r(9)p7-|----------------|
|-----------------|-------------------|-7-10-10p7------|
|-----------------|-------------------|-------------7--|
|-----------------|-------------------|-----------9----|
|-----------------|-------------------|----------------|
|-----------------|-------------------|----------------|


 4/4                                  3/4
   ~~~~~~~~~~~~
  +E  H    +Q.     Q  E a E E a Q  E   E  E  E  E E E
|----------------|-------------------|-----------------|
|----------------|-------------------|-----------------|
|-(7)------------|------7h9---7h9--7-|-9-10p=9--7-9-7--|
|-----9----(9)---|--------9-----9--9-|-9--9-(9)--------|
|----------------|-------------------|-----------------|
|----------------|-------------------|-----------------|


 4/4
  ~~~~~~~~~~~~~~~~~~~~~~~~~~~~~~~~
  Q       E   E   E   E   E   E
|--------------------------------|
|--------10--10--10--10--10--10--|
|-9b11===(9)-(9)-(9)-(9)-(9)-(9)-|
|--------------------------------|
|--------------------------------|
|--------------------------------|


                                   3/4
 ~~~~~~~~~~~~~~~~~~~~~~~~~~~~~~~~~                      ~
                                            |---3----|
   E   E   E   E   E   E   E   E     E  E   S    +E  E. Q
|---------------------------------|------------------------|
|-10--10--10--10--10--10--10--10--|-10-10------------------|
|-(9)-(9)-(9)-(9)-(9)-(9)-(9)-(9)-|--9-(9)r-9b11r(9)-7-----|
|---------------------------------|---------------------9--|
|---------------------------------|------------------------|
|---------------------------------|------------------------|


 4/4                                             3/4
  +E  Q  S s H       S     +E  S  E  E E  Q   E    E  E  E  E  Q
|-----------------|-10b11r(10)p7----------------|-------12-13-14------|
|-----------------|--------------10-12---12-----|-12-15-------17b19---|
|-----7-----------|--------------------------14-|---------------------|
|-(9)----9s7------|-----------------------------|---------------------|
|-----------------|-----------------------------|---------------------|
|-----------------|-----------------------------|---------------------|


  Dmaj7
 4/4
   Q.      Q      Q      E       +Q    Q.      E.    +E      +S
|-14------14-----14-----14----|-(14)--14------14----(14)----(14)-|
|-17b19---17b19--17b19--17b19r|=(17)--17b19---17b19r(17)b19r(17)-|
|-----------------------------|----------------------------------|
|-----------------------------|----------------------------------|
|-----------------------------|----------------------------------|
|-----------------------------|----------------------------------|
|
| Gtr I
|  W                             +W
|-^9--------------------------|--(9)-----------------------------|
|-^7--------------------------|--(7)-----------------------------|
|-^7--------------------------|--(7)-----------------------------|
|-----------------------------|----------------------------------|
|-----------------------------|----------------------------------|
|-----------------------------|----------------------------------|


                              E7
 3/4
   E  S  +S      S   S   E  Q
|-14-14-(14)----14-(14)------------|
|-17-17-(17)b19r17p=15-----15------|
|-----------------------16---------|
|----------------------------------|
|----------------------------------|
|----------------------------------|
|
|  H                        E   E
|-----------------------------^10--|
|-----------------------------^-9--|
|-----------------------------^-9--|
|----------------------------------|
|----------------------------------|
|----------------------------------|


 4/4                                                    3/4
                     ~~~~~~~~~~
   +E   E  E e  E E  Q     +Q   E  Q      Q      E        +E   E  E  E  S S E
|-----------------------|---------10-----10------------|----------------------|
|-(15)----15-0----0-----|---------12b15--12b15--12pb15r|=(12)-10-------10S7---|
|------16------16---16--|-(16)-------------------------|---------11-11------7-|
|-----------------------|------------------------------|----------------------|
|-----------------------|------------------------------|----------------------|
|-----------------------|------------------------------|----------------------|
|
|  +W                      +W                             +H.
|-(10)------------------|-(10)-------------------------|-(10)-----------------|
|--(9)------------------|--(9)-------------------------|--(9)-----------------|
|--(9)------------------|--(9)-------------------------|--(9)-----------------|
|-----------------------|------------------------------|----------------------|
|-----------------------|------------------------------|----------------------|
|-----------------------|------------------------------|----------------------|


  Bm7XII                                                                Bm6XII
 4/4                                                 3/4
                                                                          ~~~
    Q  E Q  E  E  E     S   S   E  E  E  E  E  E  E   S  S  E T  T S  E   Q
|-------------------|-------------------------------|---------7-10-7---------|
|-------------------|----------------10-10-10-10-10-|------10--------10--12--|
|--------7-----9----|--10p==9-----11-11-11-11-11-11-|-9-11-------------------|
|---9--9-9--9-(9)-9-|---9--(9)-12--9----------------|------------------------|
|-------------------|-------------------------------|------------------------|
|-------------------|-------------------------------|------------------------|
|
|   W                  +W                             H                   Q
|-^14---------------|-(14)--------------------------|-------------------^14--|
|-^12---------------|-(12)--------------------------|-------------------^12--|
|-^14---------------|-(14)--------------------------|-------------------^13--|
|-------------------|-------------------------------|------------------------|
|-------------------|-------------------------------|------------------------|
|-------------------|-------------------------------|------------------------|


 4/4
    E   E  E  E  E  E  E  E
|---------------------------|
|---------------------------|
|--14h=16-16-16-14h16-16-16-|
|---------------------------|
|---------------------------|
|---------------------------|
|
|  +W
|-(14)----------------------|
|-(12)----------------------|
|-(13)----------------------|
|---------------------------|
|---------------------------|
|---------------------------|


                                 3/4
    E    E   E  E  E  E   E   E    E   E  E  E  E  E
|--17--(17)----16----16-(16)----|-16-----17----17----|
|-------------------------------|--------------------|
|--14h==16--16-16-16-16--16--16-|-16--16-16-16-16-16-|
|-------------------------------|--------------------|
|-------------------------------|--------------------|
|-------------------------------|--------------------|
|
|  +W                              H.
|-(14)--------------------------|--------------------|
|-(12)--------------------------|--------------------|
|-(13)--------------------------|--------------------|
|-------------------------------|--------------------|
|-------------------------------|--------------------|
|-------------------------------|--------------------|


 4/4
    ~~~~~~~~~~~~~~~~~~~~~~~~~~~~~~~~~~~~~~~~~~~~~~~~~~~~~
    E     +Q    Q      Q      E       +Q    Q.      Q      E
|--17b19-(17)--17b19--17b19--17b19-|-(17)--17b19---17b19--17pb19r|
|----------------------------------|-----------------------------|
|-(16)-----------------------------|-----------------------------|
|----------------------------------|-----------------------------|
|----------------------------------|-----------------------------|
|----------------------------------|-----------------------------|
|
|   W                                 +W
|-^-9------------------------------|--(9)------------------------|
|-^-7------------------------------|--(7)------------------------|
|-^-7------------------------------|--(7)------------------------|
|----------------------------------|-----------------------------|
|----------------------------------|-----------------------------|
|----------------------------------|-----------------------------|


 3/4                     4/4
                     ~~~        ~~~~~~~~~~~
   +S   S  E  E  E   Q     +E   Q   Q   Q.
|-(17)p15----15-17--15--|-(15)----------------|
|---------17------------|------17--17--17-----|
|-----------------------|---------------------|
|-----------------------|---------------------|
|-----------------------|---------------------|
|-----------------------|---------------------|
|
|   H                Q     +W
|------------------^10--|-(10)----------------|
|------------------^-9--|--(9)----------------|
|------------------^-9--|--(9)----------------|
|-----------------------|---------------------|
|-----------------------|---------------------|
|-----------------------|---------------------|


 Chorus
         E5                                 E5
                                     3/4           4/4
         Gtr II
                                                     >
   ~~~
   Q   E E E Q  E   E E E E E E E E   E E E E E E   +W           +W
|-----------------|-----------------|-------------|------------|--------|
|-17\-------------|-----------------|-------------|------------|--------|
|--------9---9----|-----------------|-------9---9-|-(9)--------|-(9)----|
|--------9---9----|-----------------|-------9---9-|-(9)--------|-(9)----|
|--------7---7--5-|-7-8-7-5-7-5-7-5-|---5---7---7-|-(7)--------|-(7)----|
|-----------------|-----------------|-7-----------|------------|--------|


                             D        Bm        D
  Gtr III
   W           W                  H      H
|------------|-----------------|------------------|
|------------|-----------------|---------7--------|
|------------|-----------------|---------9b11-----|
|------------|-----------------|------------------|
|------------|-----------------|------------------|
|------------|-----------------|------------------|
|
| Gtr II
| +W           E E E E E E E E   +Q   Q  Q.     E
|------------|-----------------|------------------|
|------------|-----------------|------------------|
|-(9)--------|---------------7-|-(7)--4---------7-|
|-(9)--------|---------------7-|-(7)--4---------7-|
|-(7)--------|-7-5---5---7-----|------------------|
|------------|-----7-----------|------------------|


          Bm     D                 Bm
                                              ~
                                   |---3----|
  +H      Q.     E      +Q   Q     E    +E  E Q
|---------------------|---------------------------|
|-(7)-----7------7----|-(7)--7-----7----(7)-------|
|-(9)-----9b11---9b11-|-(9)--9b11--9b11r(9)-7-----|
|---------------------|-----------------------9---|
|---------------------|---------------------------|
|---------------------|---------------------------|
|
| +Q   Q  Q.     E      +Q   Q     H
|---------------------|---------------------------|
|---------------------|---------------------------|
|-(7)--4---------7----|-(7)--4--------------------|
|-(7)--4---------7----|-(7)--4--------------------|
|---------------------|---------------------------|
|---------------------|---------------------------|


              E5
 4/4                 4/4
   ~~~~~~~~~~~~~~~~~~~~~~~                        ~~~~~~~~~~
  +W                  +H     H       W            a  +W
|-------------------|-------------|------------|-10-(10)-------|
|-------------------|-------------|------------|-12-(12)b15----|
|-------------------|-------------|------------|---------------|
|-(9)---------------|-(9)---------|------------|---------------|
|-------------------|-------------|------------|---------------|
|-------------------|-------------|------------|---------------|
|
|                 >
|  E  E E E E E E E   +W            +W               +W
|-------------------|-------------|------------|---------------|
|-------------------|-------------|------------|---------------|
|-------------9---9-|-(9)---------|-(9)--------|-----(9)-------|
|-------------9---9-|-(9)---------|-(9)--------|-----(9)-------|
|--7--5---5---7---7-|-(7)---------|-(7)--------|-----(7)-------|
|-------7-----------|-------------|------------|---------------|


  Gtr II
                               >
  E E E E E E E E   +Q.   H    E   +W           +W           +W
|-----------------|--------------|------------|------------|--------|
|-----------------|--------------|------------|------------|--------|
|-----------------|--------------|------------|------------|--------|
|-----------------|------------4-|-(4)--------|-(4)--------|-(4)----|
|---7-5---4-------|-------4------|------------|------------|--------|
|-------7---7-5-2-|-(2)----------|------------|------------|--------|


   Drums Solo
                                      3/4
          PM--------------------------------------|
    Q  E  E E E E E   Q  Q   E Q   E   E E E  E E E
||------------------|----------------|--------------|
||o-----------------|----------------|--------------|
||------------------|----------------|--------------|
||------------------|----9\----------|--------------|
||o-----------7---9-|----------7-----|-7-8-7--------|
||--7--7-10---------|-------------10-|-------10-7-7-|


 4/4                                 3/4
  PM--------------------|         PM--------|
  E  E E E E E Q    Q   E E E Q   E   E E E  E E E  8x
|-----------------|-----------------|---------------||
|-----------------|-----------------|--------------o||
|-----------------|-------9---9-----|---------------||
|-----------------|-9\----9---9-----|---------------||
|--------7---9----|-------7---7-----|-7-8-7------0-o||
|-7-10------------|--------------10-|-------10-7----||


 Outro - Fade Out
 4/4                                3/4
  PM    PM--------------------------------------|
  Q  E  E E E E E   Q  Q   E Q   E   E E E  E E E
|-----------------|----------------|--------------|
|-----------------|----------------|--------------|
|-----------------|----------------|--------------|
|-----------------|----9\----------|--------------|
|-----------7---9-|----------7-----|-7-8-7--------|
|-7--7-10---------|-------------10-|-------10-7-7-|


 4/4                                 3/4
  PM--------------------|         PM--------|
  E  E E E E E Q    Q   E E E Q   E   E E E  E E E
|-----------------|-----------------|--------------*|
|-----------------|-----------------|--------------*|
|-----------------|-------9---9-----|--------------*|
|-----------------|-9\----9---9-----|--------------*|
|--------7---9----|-------7---7-----|-7-8-7------0-*|
|-7-10------------|--------------10-|-------10-7---*|


Duration Legend
---------------
W - whole; H - half; Q - quarter; E - 8th; S - 16th; T - 32nd; X - 64th; a - acciaccatura
+ - note tied to previous; . - note dotted; .. - note double dotted
Uncapitalized letters represent notes that are staccato (1/2 duration)
Irregular groupings are notated above the duration line
Duration letters will always appear directly above the note/fret number it represents the
duration for.  Duration letters with no fret number below them represent rests.  Multi-
bar rests are notated in the form Wxn, where n is the number of bars to rest for.  Low
melody durations appear below the staff

Tablature Legend
----------------
 h   - hammer-on
 p   - pull-off
 b   - bend
 pb  - pre-bend
 r   - bend release (if no number after the r, then release immediately)
 /\  - slide into or out of (from/to "nowhere")
 s   - legato slide
 S   - shift slide
  - natural harmonic
[n]  - artificial harmonic
n(n) - tapped harmonic
 ~   - vibrato
 tr  - trill
 T   - tap
 TP  - trem. picking
 PM  - palm muting
\n/  - tremolo bar dip; n = amount to dip
 \n  - tremolo bar down
 n/  - tremolo bar up
/n\  - tremolo bar inverted dip
 =   - hold bend; also acts as connecting device for hammers/pulls
 <>  - volume swell (louder/softer)
 x   - on rhythm slash represents muted slash
 o   - on rhythm slash represents single note slash

Misc Legend
-----------
 |  - bar
||  - double bar
||o - repeat start
o|| - repeat end
*|  - double bar (ending)
 :  - bar (freetime)
 $  - Segno
 &  - Coda
Tempo markers -  = BPM(8/16=s8/s16), where s8 = swing 8ths, s16 = swing 16ths


Добавлено: 09.07.2012
Другие материалы по этой песне:

Страница создана 09.03.2012
http://primanota.ru/govt-mule/thorazine-shuffle-chords.htm
Привет, Гость.
Предлагаем пройти революционный курс по гитаре.
Подарок от PrimaNota.Ru, забирай!