PrimaNota.ru - самый крупный в мире бесплатный архив песенных текстов, аккордов, табулатур и нот


Govt Mule - Kind Of Bird - таба, видео

Регистрация Запомнить меня
Войти через:  Facebook Google Twitter Vk Yandex Mail.ru

Govt Mule - Kind Of Bird - таба, видео

Печатать
Просмотров: 121
Авторы музыки: Warren Haynes, Dickey Betts

Artist: Gov't Mule
Song: Kind of Bird
Album: Live at Roseland Ballroom (1996)

Just the intro

|-------11-----------------------------------------8-10b11----/13--10-11-8--------------------|
|----------13~---7S8-11-10------------------------8-------------------------8-10-11-8---------|
|-11h12--------------------8-10----8------8----------------------------------------------8-11-|
|-------------------------------10----------10~---------------------------------------10------|
|------------------------------------9h10-----------------------------------------------------|
|---------------------------------------------------------------------------------------------|


|--------------------------------------------------------------------------------------------|
|--------------------------8-10--/11----10----8----------------------------------------------|
|-10----8-7~--------7-8-10-------/12--8-10--7-8-----/10~-----11-10------10~----10-9------8~--|
|----10--------8-10------------------------------10-/12~---9-------9-12------7------7-10-----|
|--------------------------------------------------------------------------------------------|
|--------------------------------------------------------------------------------------------|


|------------------------------------------11----------------------------------------|
|------------------------11-11--11~-----------13~---7S8-11-10------------------------|
|-8-7-5---7-5------------10-10--10~--11h12--------------------8-10----8------8-------|
|-------6-----6---5-5---8-8--8---8~--------------------------------10----------10~---|
|---------------8-------------------------------------------------------9h10---------|
|------------------------------------------------------------------------------------|


|---8-10b11----/13--10-11-8------------------------------------------------------------|
|--8------------------------8-10-11-8----------------------------------8-10--/11----10-|
|----------------------------------------8-11-10----8-7~--------7-8-10-------/12--8-10-|
|-------------------------------------10---------10--------8-10------------------------|
|--------------------------------------------------------------------------------------|
|--------------------------------------------------------------------------------------|


|----------------------------------------------------------------------------------------|
|---8-------------------------------------------------------------------11--11--11-11----|
|-7-8-----/10~----11-10------10~----10-9------8~--8-7-5---7-5-----------10--10--10-10----|
|------10-/12~--9-------9-12------7------7-10-----------6-----6---5-5----8---8---8--8----|
|---------------------------------------------------------------8------------------------|
|----------------------------------------------------------------------------------------|
Добавлено: 16.03.2012
Другие материалы по этой песне:
  • Аккорды и текст

Страница создана 16.03.2012
http://primanota.ru/govt-mule/kind-of-bird-chords.htm
Привет, Гость.
Предлагаем пройти революционный курс по гитаре.
Подарок от PrimaNota.Ru, забирай!