PrimaNota.ru - самый крупный в мире бесплатный архив песенных текстов, аккордов, табулатур и нот


Govt Mule - Broke Down On The Brazos - бас-таба, видео

Регистрация Запомнить меня
Войти через:  Facebook Google Twitter Vk Yandex Mail.ru

Govt Mule - Broke Down On The Brazos - бас-таба, видео

Печатать
Просмотров: 135
You can tell by the sound he is most likely playing with a pick

E RIFF:
G----------------------------|
D----------------------------|
A----------------------------|
E-0-0-0-0-0-0-0-0-3^-0-0-0-0-|   just a driving bass line. super tight with drums

E
E0-0-0-0-0-5-3-0-0
Evariations                OR EVEN HITTING THE D TO D FLAT, OR THE E TO D ON THE A 
THE KEY IS TO KEEP THE LOW E ON BEAT.
E-0-0-0-3-5-0-0-0-0

G--------------------|
D------5-------------|
A---5---75-75----5-7-|
E-57-7----7--75-0----|   OR YOU CAN PLAY SAME RIFF BUT HIGHER STARTING ON THE

12TH FRET A STRING. INSTEAD OF 5TH FRET E STRING.

THEN GO TO C#, BASICALLY SAME FEEL BUT WARREN THROWS A LICK IN.
C# RIFF
G-
D-
A-4-4-4-4-4
E--

LICK:
G---------------------------------|
D---------------------------------|
A-4-4-4-4-4-4-7-7-4-4-4-4-4-4-4-4-|
E----------------7-0--------------|

BACK TO THE E RIFF
BACK TO THE C# RIFF

GOOD LUCK AFTER THAT. ILL POST THE REST LATER
Добавлено: 24.03.2012
Другие материалы по этой песне:
  • Аккорды и текст

Страница создана 24.03.2012
http://primanota.ru/govt-mule/broke-down-on-the-brazos-chords.htm
Привет, Гость.
Предлагаем пройти революционный курс по гитаре.
Подарок от PrimaNota.Ru, забирай!