PrimaNota.ru - самый крупный в мире бесплатный архив песенных текстов, аккордов, табулатур и нот


Govt Mule - Bad Little Doggie - текст песни, таба, видео

Регистрация Запомнить меня
Войти через:  Facebook Google Twitter Vk Yandex Mail.ru

Govt Mule - Bad Little Doggie - текст песни, таба, видео

Печатать
Просмотров: 144
Уроки эстрадного вокала в Санкт-Петербурге
From the studio CD "Life Before Insanity"
I can't believe no one posted this yet.  It's a great tune and a blast to play.  Warren 
an amazing guitarist, singer & song writer and one of the greatest riff masters of all time!

Intro Riff
E|--------------------------------|
B|---------------------2--3-------|
G|--4b--2--------------2--2-------|
D|---------4b--2-------2--4-------|
A|----------------3p0--0--0-------|
E|--------------------------------|

Verses & Chorus (This is the basic riff, Warren mixes it up with some nice variations – 
below.)
E|---------------------------------------------------------|
B|---------------------------------------------------------|
G|-------------------------------------------------0-------|
D|---------------------0-2---------------------------2-----|
A|-5-7-------4-5---------------5-7-------4-5---------------|
E|-----0-0-0-----3p0-0-----0-0-----0-0-0-----3p0-0---------|

Verses & Chorus Variation I
E|---------------------------------------------------------|
B|------8-------------------------8------------------------|
G|------7-------------------------7------------0-----------|
D|-----(6)-----------0-2---------(6)-------------2---------|
A|-5-7-----4-5---------------5-7-----4-5-------------------|
E|-------------3p0-0-----0-0-------------3p0-0-------------|

Verses & Chorus Variation II (Mostly used last half of last verse.)
E|---------------------------------------------------------|
B|-7/8-8-8-------------------7/8-8-8-----------------------|
G|-6/7-7-7-------------------6/7-7-7-----------0-----------|
D|-5/6-6-6-----------0-2-----5/6-6-6-------------2---------|
A|---------4-5-----------------------4-5-------------------|
E|-------------3p0-0-----0-0-------------3p0-0-------------|

Bridge I – Your sister can't save ya…
E|---------------------------------------------------------|
B|--2--3--------2--3--------2--3--------2--3---------------|
G|--2--2--------2--2--------2--2--------2--2---------------|
D|--2--4--------2--4--------2--4--------2--4---------------|
A|--0--0--03P0--0--0--03P0--0--0--03P0--0--0---------------|
E|---------------------------------------------------------|

Bridge II – I'm through messin'…
E|------------------------------------------------------------------|
B|--2-(4)-2-(4)-2-(4)-2-(4)-2-(4)-2-(4)-2-(4)-2-(4)-2-(4)-----------|
G|--2--4--2--4--2--4--2--4--2--4--2--4--2--4--2--4--2--4------------|
D|--2--4--2--4--2--4--2--4--2--4--2--4--2--4--2--4--2--4------------|
A|--2-----2-----2-----2-----2-----2-----2-----2-----2---------------|
E-------------------------------------------------------------------|

Bridge & Ending Riff – When played before the lead end on C chord, otherwise end on 
C note, 3rd fret A string.
E|-----------------------------|
B|-------------------(1)-------|
G|--------------2P0--(0)-------|
D|-----------2-------(2)-------|
A|--0--3--4-----------3--------|
E|-----------------------------|

These are all the pieces.  Put 'em together in the right order and spank that naughty 
pup.  Enjoy!
I'll post the lead when I can find the time to tab it...
Добавлено: 02.05.2012
Другие материалы по этой песне:

Страница создана 02.05.2012
http://primanota.ru/govt-mule/bad-little-doggie-chords.htm
Привет, Гость.
Предлагаем пройти революционный курс по гитаре.
Подарок от PrimaNota.Ru, забирай!