PrimaNota.ru - самый крупный в мире бесплатный архив песенных текстов, аккордов, табулатур и нот


Govt Mule - 32 20 Blues - таба, видео

Регистрация Запомнить меня
Войти через:  Facebook Google Twitter Vk Yandex Mail.ru

Govt Mule - 32 20 Blues - таба, видео

Печатать
Просмотров: 148
Авторы: Robert Johnson

-----------------------------------------------------------------
32/20 Blues - Gov't Mule
-----------------------------------------------------------------
Tabbed by: Brian Poston

Tuning:standard


Intro:X4
e|--------------------------------------------------------------|
B|-9-/10-10-10--9--7-7--x-x-x-x-----9-/10-10-10--9--7-7---------|
G|-10/11-11-11--9--7h8--x-x-x-x-----10/11-11-11--9--7h8---------|
D|--------------9--7-7--x-x-x-x-x-x--------------9--7-7--9-7-9--|
A|------------------------------x-x-----------------------------|
E|------------------------------x-x-----------------------------|

Verse: X2

e|--------------------------------------------------------------|
B|-9-/10-10-10--9--7-7-------9-/10-10-10--9--7-7--x-x-x-x-------|
G|-10/11-11-11--9--7h8-------10/11-11-11--9--7h8--x-x-x-x-------|
D|--------------9--7-7--------------------9--7-7--x-x-x-x-x-x---|
A|--------------------------------------------------------x-x---|
E|--------------------------------------------------------x-x---|

e|--------------------------------------------------------------|
B|-9-/10-10-10--9--7-7----10--------9-/10-10-10--9--7-7--x-x-x-x|
G|-10/11-11-11--9--7h8----9-----7---10/11-11-11--9--7h8--x-x-x-x|
D|--------------9--7-7----7-----6----------------9--7-7--x-x-x-x|
A|------------------------0-----7-------------------------------|
E|------------------------------0'------------------------------|

e|---------------------------------------------------------------|
B|-------9-/10-10-10--9--7-7--------3----0---9-/10-10-10--9--7-7-|
G|-------10/11-11-11--9--7h8--------2----1---10/11-11-11--9--7h8-|
D|-x-x----------------9--7-7--9-7---0----2----------------9--7-7-|
A|-x-x-----------------------------------2-----------------------|
E|-x-x-----------------------------------0-----------------------|

e|---------------------------------------------------------------|
B|-x-x-x-x-----9-/10-10-10--9--7-7---------x-x-x-x---------------|
G|-x-x-x-x-----10/11-11-11--9--7h8---------x-x-x-x---------------|
D|-x-x-x-x-x-x--------------9--7-7--9-7-9--x-x-x-x-x-x-----------|
A|---------x-x-------------------------------------x-x-----------|
E|---------x-x-------------------------------------x-x-----------|

Organ Solo

e|-----------|   |--------------|   |-----------|   
B|-9--9----9-|X4 |-10--10----10-|X4 |-9--9----9-|X4   
G|-7--7----7-|   |-8---8-----8--|   |-7--7----7-|   
D|-6--6--6---|   |-9---9---9----|   |-6--6--6---|  
A|-----------|   |--------------|   |-----------|   
E|-----------|   |--------------|   |-----------|   

        
Добавлено: 28.05.2012
Другие материалы по этой песне:
  • Аккорды и текст

Страница создана 28.05.2012
http://primanota.ru/govt-mule/32-20-blues-chords.htm
Привет, Гость.
Предлагаем пройти революционный курс по гитаре.
Подарок от PrimaNota.Ru, забирай!