PrimaNota.ru - самый крупный в мире бесплатный архив песенных текстов, аккордов, табулатур и нот


Govt Mule - 30 Days In The Hole - таба, видео

Регистрация Запомнить меня
Войти через:  Facebook Google Twitter Vk Yandex Mail.ru

Govt Mule - 30 Days In The Hole - таба, видео

Печатать
Просмотров: 165
Song: 30 Days In The Hole
Artist: Gov't Mule
Album: Live with a Little Help from our Friends
Standard Tuning

k, so I fooled around with this riff a little and here's the closest I got it to 
like the record. Just play along with the song to get the feel down.

|----------------------------------|
|----------------------------------|
|----------------------------------|
|-5/7-7-7\-----/13-12----10--------|
|-3/5-5-5\--0--/11-10-----8--------|
|---------------------10----10\----|

During the verses it plays more like this

|----------------------------------|
|----------------------------------|
|----------------------------------|
|--------------/7--5-----3---------|
|-3/5-5-5\--0----------5---5\------|
|----------------------------------|
Добавлено: 06.04.2012
Другие материалы по этой песне:
  • Аккорды и текст

Страница создана 06.04.2012
http://primanota.ru/govt-mule/30-days-in-the-hole-chords.htm
Привет, Гость.
Предлагаем пройти революционный курс по гитаре.
Подарок от PrimaNota.Ru, забирай!