PrimaNota.ru - самый крупный в мире бесплатный архив песенных текстов, аккордов, табулатур и нот


Götz Widmann - Mannhirn - таба, видео

Регистрация Запомнить меня
Войти через:  Facebook Google Twitter Vk Yandex Mail.ru

Götz Widmann - Mannhirn - таба, видео

Печатать
Просмотров: 82
Mannhirn - Götz Widmann


Intro:

   Bm
e:|---------|-----2---|---------|---|
B:|---------|-3-------|-3-------|---|
G:|-----4---|---------|-4-------|---|
D:|---4---4-|---4---4-|---------|---|
A:|-2-------|---------|---------|---|
E:|---------|---------|---------|---|

   F#7/D#              F#
e:|---------|---------|---------|-----2---|
B:|---------|-5---5---|---------|-2-------|
G:|-----3---|---------|-----3---|---------|
D:|---2---2-|--(2)--2-|---4---4-|---4---4-|
A:|-4-------|---------|---------|---------|
E:|---------|---------|-2-------|---------|


2x Scheme (something like that):

   Bm
e:|---------|-----2---|---------|-2-------|
B:|---------|-3-------|-----3---|-----3---|
G:|-----4---|---------|-4-------|-------4-|
D:|---4---4-|---4---4-|---4---4-|---4-----|
A:|-2-------|---------|---------|---------|
E:|---------|---------|---------|---------|

   F#7/D#              F#
e:|---------|---------|---------|-----2---|
B:|---------|-5---5---|---------|-2-------|
G:|-----3---|---------|-----3---|---------|
D:|---2---2-|--(2)--2-|---4---4-|---4---4-|
A:|-4-------|---------|---------|---------|
E:|---------|---------|-2-------|---------|



Bm
Ich will ehrlich mit dir sein
F#7                          F#
mein Herz ist nicht wirklich rein,
            Bm
ich bin ein Mann.
F#7              F#
  Ich schau dich an.
           Em
Wir labern Schwachsinn an der Bar
Bm
  und dir und mir ist klar,
        F#7                    F# (key note: 4th fret D-string)
dass es hinter den Dingen über die wir reden
F#                                  F# (key note: 4th fret D-string)
noch Dinge gibt die in ganz anderen Sphären schweben.

Wir trinken ein Glas Wein,
wir reden über den Regen und den Sonnenschein,
den Papst, den Dalai Lama,
gutes und schlechtes Karma,
die Hippies auf den Kanaren
und überhaupt in' Urlaub fahren
und was ich meiner Mutter zum Geburtstag schenk'
und ob ich oft an meine Kindheit denk.

           Em                    F#
Es ist ein Wunder dass man nicht ständig durchdreht,
        Bm
wenn du wüsstest was in meinem Mannhirn vorgeht
        Em                    F#
während ich mich mit dir unterhalt -
                            Bm
du hättst mir längst eine geknallt.

2x Scheme

Du sagst dass du auf Pablo Neruda stehst,
Muchacha, wie du mir den Kopf verdrehst
mit deinen Lippen
die an deinem Cuba Libre nippen.
Und deine Brüste,
ich würd' wo anders hinschau'n, wenn ich was besseres wüsste,
ich würd sie gern mal nackig sehn,
von mir aus können wir gehn.

           Em                    F#
Es ist ein Wunder dass man nicht ständig durchdreht
        Bm                     Dm
wenn du wüsstest was in meinem Mannhirn vorgeht
        Em                    F#
während ich mich mit dir unterhalt
                            Bm
du hättst mir längst eine geknallt.

F#7               F#
Du machst mich so wild ich will dich,
Bm
die ganze Coolness ist gespielt ich
Dm
würde alles tun um dich ins Bett zu kriegen
F#7                       F#
Schweigen ist so ne feige Art zu lügen.

           Em                    F#
Es ist ein Wunder dass man nicht ständig durchdreht
        Bm                     Dm
wenn du wüsstest was in meinem Mannhirn vorgeht
        Em                    F#
während ich mich mit dir unterhalt
                            Bm
du hättst mir längst eine geknallt.


I'm not sure about the Dm in Chorus, may be you find something better...

music & text by götz widmann
tabbed by wisl
Добавлено: 13.06.2016
Другие материалы по этой песне:
  • Аккорды и текст

Страница создана 13.06.2016
http://primanota.ru/gotz-widmann/mannhirn-chords.htm
Привет, Гость.
Предлагаем пройти революционный курс по гитаре.
Подарок от PrimaNota.Ru, забирай!