PrimaNota.ru - самый крупный в мире бесплатный архив песенных текстов, аккордов, табулатур и нот


Gotthard - Movin On - текст песни, бас-таба, видео

Регистрация Запомнить меня
Войти через:  Facebook Google Twitter Vk Yandex Mail.ru

Gotthard - Movin On - текст песни, бас-таба, видео

Печатать
Просмотров: 307
Авторы: Steve Lee, Chris von Rohr, Leo Leoni

MOVIN ON
GOTTHARD

E|---3-5-5-3-5-------|		x4

Intro
G|-----------------------------------------------------|
D|-----------------------------------------------------|
A|-------------------------------------5---3-----------|
E|---3-5-5-3-5-------3---5-5-3-5-----------------------|        x4

Verse
G|--------------------------------------------------------------------------------------|
D|--------------------------------------------------------------------------------------|
A|------------------------------------------------------------------------5---3---------|
E|---3-5-5-3-5-------3-5-5-3-5-------3-5-5-3-5-------3-5-5-3-5--------------------------|

G|--------------------------------------------------------------------|
D|--------------------------------------------------------------------|
A|--------------------------------------------------------------------|
E|---3-5-5-3-5-------3-5-5-3-5-------3-55555555555--------------------|

Chorus 1
G|--------------------------------------------------------------------|
D|--------------------------------------------------------------------|
A|-----------------55555555------------------------------------5---3--|
E|---33333333----------------3-5-5-3-5------3---5-5-3-5---------------|        x2

Chorus 2
G|-----------------------------------------------------------------------------------------|
D|-----------------------------------------------------------------------------------------|
A|-----------------55555555------------------------------------5---3--------------------5--|
E|---33333333----------------3-5-5-3-5------3---5-5-3-5--------------33333333--------------|

Solo
G|---------------------------------------|
D|---------------------------------------|
A|---------------------------------------|
E|---55555555----------------------------|


Song structure
 Intro		x4
Verse		x1
Chorus 1	x2
Intro		x1
Verse		x1
Chorus 2	x1

Intro		x4
Corus 1	x2
Intro 		x1
Solo		x4
Corus 1	x…
Добавлено: 20.04.2012
Другие материалы по этой песне:
  • Аккорды и текст

Страница создана 20.04.2012
http://primanota.ru/gotthard/movin-on-chords.htm
Привет, Гость.
Предлагаем пройти революционный курс по гитаре.
Подарок от PrimaNota.Ru, забирай!