PrimaNota.ru - самый крупный в мире бесплатный архив песенных текстов, аккордов, табулатур и нот


Gossip - Vertical Rhythm - текст песни, таба, видео

Регистрация Запомнить меня
Войти через:  Facebook Google Twitter Vk Yandex Mail.ru

Gossip - Vertical Rhythm - текст песни, таба, видео

Печатать
Просмотров: 193
Уроки эстрадного вокала в Санкт-Петербурге
Cool song and good practice for alternate picking and funk-muting 



Verse:

      PM PM PM PM PM PM PM PM PM PM PM PM PM PM PM PM 
      S  S  S  S  S  S  S  S  S  S  S  S  S  S  S  S  
E||--------------------------------------------------|
B||--------15-15-------13-13-------------------------|
G||--------------------------------15-15-------14-14-|
D||--12-12-------12-12-------12-12-------12-12-------|
A||--------------------------------------------------|
D||--------------------------------------------------|


  PM PM  PM PMPM PM  PM PMPM PM PM PM PM PM PM PM  
  S  S   S  S S  S   S  S S  S  S  S  S  S  S  S   
--------------------------------------------------|
--------------------------------------------------|
--------------------------------------------------|
--0--0--12-12-0--0--10-10-0--0--8--8--0--0--7--7--|
--------------------------------------------------|
--------------------------------------------------|


   PM PM PM PM PM PM PM PM PM PM PM PM PM PM PM PM 
   S  S  S  S  S  S  S  S  S  S  S  S  S  S  S  S  
--------------------------------------------------|
--------15-15-------13-13-------------------------|
--------------------------------15-15-------14-14-|
--12-12-------12-12-------12-12-------12-12-------|
--------------------------------------------------|
--------------------------------------------------|


  PM PM  PM PMPM PM  PM PMPM PM PM PM PM PM PM PM  
  S  S   S  S S  S   S  S S  S  S  S  S  S  S  S   
--------------------------------------------------|
--------------------------------------------------|
--------------------------------------------------|
--0--0--12-12-0--0--10-10-0--0--8--8--0--0--7--5--|
--------------------------------------------------|
--------------------------------------------------|


  PM PM PM PM PM PM PM PM PM PM PM PM        
  S  S  S  S  S  S  S  S  S  S  S  S  E  E   
--------------------------------------3-----|
--------------------------------------3-----|
--------------3--3--------------------3-----|
--------5--5--------5--5--------5--5--------|
--------------------------------------------|
--5--5--------------------5--5--------------|


  PM PM PM PM PM PM PM PM PM PM PM PM        
  S  S  S  S  S  S  S  S  S  S  S  S  E  E   
--------------------------------------3-----|
--------------------------------------3-----|
--------------3--3--------------------3-----|
--------5--5--------5--5--------5--5--------|
--------------------------------------------|
--5--5--------------------5--5--------------|


  PM PM PM PM PM PM PM PM PM PM PM PM        
  S  S  S  S  S  S  S  S  S  S  S  S  E  E   
--------------------------------------3-----|
--------------------------------------3-----|
--------------3--3--------------------3-----|
--------5--5--------5--5--------5--5--------|
--------------------------------------------|
--5--5--------------------5--5--------------|


  PM PM PM PM PM PM PM PM PM PM PM PM                                
  S  S  S  S  S  S  S  S  S  S  S  S  E  E                           
--------------------------------------3-----|
--------------------------------------3-----|
--------------3--3--------------------3-----|
--------5--5--------5--5--------5--5--------|
--------------------------------------------|
--5--5--------------------5--5--------------|





Chorus:

  E  E  Q.     E  S E.     Q    Q.     E  S E.   
------------------------|-----------------------|
------------------------|-----------------------|
------------------------|-----------------------|
------------------------|-----------------------|
------------------------|-----------------------|
--0-----0------3--3-3---|--5----5------3--3-3---|


  Q    Q.     E  E   E      Q     Q     S  S  S  S  E   E         
------------------------|--------------10-10-10-10-13--10--|
------------------------|--------------10-10-10-10-10--10--|
------------------------|----------------------------------|
------------------------|----------------------------------|
------------------------|----------------------------------|
--8----8------8--8--10--|--12----12------------------------|





Bridge:

     PM PM    PM PM      PM PM PM       PM PM    PM PM      PM PM PM     
     S  S  E  S  S  Q    E  S  S  E     S  S  E  S  S  Q    E  S  S  E   
E||----------------------------------|----------------------------------|
B||----------------------------------|----------------------------------|
G||----------------------------------|----------------------------------|
D||--0--0-----0--0-------------------|--0--0-----0--0-------------------|
A||----------------------------------|----------------------------------|
D||----------------------0--0--0-----|----------------------0--0--0-----|


  E  E  E  Q    E  E  E     E  E  E   Q     E   E   E                   
-------------------------|-----------------------------|
-------------------------|-----------------------------|
-------------------------|-----------------------------|
--5--5--5--3----3--3--8--|--L--8--8--10----10--10--10--|
-------------------------|-----------------------------|
--5--5--5--3----3--3--8--|--L--8--8--10----10--10--10--




Duration Legend
---------------
W - whole
H - half
Q - quarter
E - 8th
S - 16th
T - 32nd
X - 64th
. - note dotted
|-n-|  - n-tuplets


Tablature Legend
----------------
L - tied note
x - dead note
g - grace note
(n) - ghost note
> - accentuded note
NH - natural harmonic
AH - artificial harmonic
TH - tapped harmonic
SH - semi harmonic
PH - pitch harmonic
h - hammer on
p - pull off
b - bend
br - bendRelease
pb - preBend
pbr - preBendRelease
brb - bendReleaseBend
\n/ - tremolo bar dip
\n - tremolo bar dive
-/n - tremolo bar Release up
/n\ - tremolo bar inverted dip
/n - tremolo bar return
-\n - tremolo bar Release down
S - shift slide
s - legato slide
/ -  slide into from below or out of upwards
\ -  slide into from above or out of downwards
~ - vibrato
W - wide vibrato
tr - trill
TP - tremolo picking
T - tapping
S - slap
P - pop
< - fade in
^ - brush up
v - brush down

Добавлено: 01.05.2012
Другие материалы по этой песне:
  • Аккорды и текст

Страница создана 01.05.2012
http://primanota.ru/gossip/vertical-rhythm-chords.htm
Привет, Гость.
Предлагаем пройти революционный курс по гитаре.
Подарок от PrimaNota.Ru, забирай!