PrimaNota.ru - самый крупный в мире бесплатный архив песенных текстов, аккордов, табулатур и нот


Gorod - Aquarium - таба, видео

Регистрация Запомнить меня
Войти через:  Facebook Google Twitter Vk Yandex Mail.ru

Gorod - Aquarium - таба, видео

Печатать
Просмотров: 146
Gorod Zolotoy
Aquarium
ACCA



          Am                                
     Q    Q    Q    E  E  Q    E   E  Q     
E||----------------------------------------|
B||-------1----0---------------0s--1-------|
G||-----------------2--1--2-----------2----|
D||--2-------------------------------------|
A||-------0---------------0----------------|
E||----------------------------------------|


  Q    Q    Q    E  E  Q    E   E  Q       Q    Q    E  Q    E  E  E  Q     
-------0---------------------------0----|-------1----0---------------------|
------------3----1--0--1----1s--3-------|---------------3----1--0--1--3----|
----------------------------------------|--2-------------------------------|
--2-------------------------------------|-------0---------------0----------|
-------0---------------0----------------|----------------------------------|
----------------------------------------|----------------------------------|


                                             Am                                
  Q    Q    Q    Q    Q    Q    Q       Q    Q    Q    E  E  Q    E   E  Q     
--1----0-----------------------------|----------------------------------------|
------------3----1----3----0---------|-------1----0---------------0s--1-------|
-------------------------------------|-----------------2--1--2-----------2----|
-------------------------------------|--2-------------------------------------|
-------------------------------------|-------0---------------0----------------|
-------0-------------------0---------|----------------------------------------|


  Q    Q    Q    E  E  Q    E   E  Q       Q    Q    E  Q    E  E  E  Q     
-------0---------------------------0----|-------1----0---------------------|
------------3----1--0--1----1s--3-------|---------------3----1--0--1--3----|
----------------------------------------|--2-------------------------------|
--2-------------------------------------|-------0---------------0----------|
-------0---------------0----------------|----------------------------------|
----------------------------------------|----------------------------------|


  Q    Q    Q    Q    Q    Q    Q     
--1----0-----------------------------|
------------3----0----1--------------|
---------------------------2---------|
-------------------------------------|
---------------------------0---------|
-------0-----------------------------|


  Q    Q    Q    Q    Q    E  E  E  E  E  E   
--3----3--------------3----3--1--0--1--5-----|
-----------------2---------------------------|
------------2--------------------------------|
---------------------------0-----------------|
-------0---------0---------------------------|
---------------------------------------------|


  Q    Q    Q    Q    Q    E  E  E  E  E  E   
--1----1--------------1----1--0-----0--3-----|
-----------------0---------------4-----------|
------------0--------------------------------|
---------------------------------------------|
---------------------------3-----------------|
-------3---------3---------------------------|


  Q    E  E  E   E  E  E  E  H        Q    E   
-------------5--10--8--7--5--5--------4-------|
-------5--6---------------------------3-------|
--7-----------------------------------4-------|
--0-------------------------------------------|
-----------------------------7----------------|
----------------------------------------------|


  Q    E  E  E   E  E  E  E  Q    Q    Q    E   
-------------5--10--8--7--5--5----4----5-------|
-------5--6-----------------------3----5-------|
--7-------------------------------4----5-------|
--0--------------------------------------------|
-----------------------------7-----------------|
-----------------------------------------------|


  Q    Q    Q    Q    Q    E  E  E  E  E  E   
--3----3--------------3----3--1--0--1--5-----|
-----------------2---------------------------|
------------2--------------------------------|
---------------------------0-----------------|
-------0---------0---------------------------|
---------------------------------------------|


  Q    Q    Q    Q    Q    E  E  E  E  E  E   
--1----1--------------1----1--0-----0--3-----|
-----------------0---------------4-----------|
------------0--------------------------------|
---------------------------------------------|
---------------------------3-----------------|
-------3---------3---------------------------|


  Q    E  E  E   E  E  E  E  H        Q    E   
-------------5--10--8--7--5--5--------4-------|
-------5--6---------------------------3-------|
--7-----------------------------------4-------|
--0-------------------------------------------|
-----------------------------7----------------|
----------------------------------------------|


  Q    E  E  E   E  E  E  E  Q    Q    Q    E   
-------------5--10--8--7--5--5----4----5-------|
-------5--6-----------------------3----5-------|
--7-------------------------------4----5-------|
--0--------------------------------------------|
-----------------------------7-----------------|
-----------------------------------------------|


       Am                                
  Q    Q    Q    E  E  Q    E   E  Q     
----------------------------------------|
-------1----0---------------0s--1-------|
-----------------2--1--2-----------2----|
--2-------------------------------------|
-------0---------------0----------------|
----------------------------------------|


  Q    Q    Q    E  E  Q    E   E  Q       Q    Q    E  Q    E  E  E  Q     
-------0---------------------------0----|-------1----0---------------------|
------------3----1--0--1----1s--3-------|---------------3----1--0--1--3----|
----------------------------------------|--2-------------------------------|
--2-------------------------------------|-------0---------------0----------|
-------0---------------0----------------|----------------------------------|
----------------------------------------|----------------------------------|


                                             Am                                
  Q    Q    Q    Q    Q    Q    Q       Q    Q    Q    E  E  Q    E   E  Q     
--1----0-----------------------------|----------------------------------------|
------------3----1----3----0---------|-------1----0---------------0s--1-------|
-------------------------------------|-----------------2--1--2-----------2----|
-------------------------------------|--2-------------------------------------|
-------------------------------------|-------0---------------0----------------|
-------0-------------------0---------|----------------------------------------|


  Q    Q    Q    E  E  Q    E   E  Q       Q    Q    E  Q    E  E  E  Q     
-------0---------------------------0----|-------1----0---------------------|
------------3----1--0--1----1s--3-------|---------------3----1--0--1--3----|
----------------------------------------|--2-------------------------------|
--2-------------------------------------|-------0---------------0----------|
-------0---------------0----------------|----------------------------------|
----------------------------------------|----------------------------------|


  Q    Q    Q    Q    Q    Q    Q     
--1----0-----------------------------|
------------3----0----1--------------|
---------------------------2---------|
-------------------------------------|
---------------------------0---------|
-------0-----------------------------|


  Q    Q    Q    Q    Q    E  E  E  E  E  E   
--3----3--------------3----3--1--0--1--5-----|
-----------------2---------------------------|
------------2--------------------------------|
---------------------------0-----------------|
-------0---------0---------------------------|
---------------------------------------------|


  Q    Q    Q    Q    Q    E  E  E  E  E  E   
--1----1--------------1----1--0-----0--3-----|
-----------------0---------------4-----------|
------------0--------------------------------|
---------------------------------------------|
---------------------------3-----------------|
-------3---------3---------------------------|


  Q    E  E  E   E  E  E  E  H        Q    E   
-------------5--10--8--7--5--5--------4-------|
-------5--6---------------------------3-------|
--7-----------------------------------4-------|
--0-------------------------------------------|
-----------------------------7----------------|
----------------------------------------------|


  Q    E  E  E   E  E  E  E  Q    Q    Q    E   
-------------5--10--8--7--5--5----4----5-------|
-------5--6-----------------------3----5-------|
--7-------------------------------4----5-------|
--0--------------------------------------------|
-----------------------------7-----------------|
-----------------------------------------------|


  Q    Q    Q    Q    Q    E  E  E  E  E  E   
--3----3--------------3----3--1--0--1--5-----|
-----------------2---------------------------|
------------2--------------------------------|
---------------------------0-----------------|
-------0---------0---------------------------|
---------------------------------------------|


  Q    Q    Q    Q    Q    E  E  E  E  E  E   
--1----1--------------1----1--0-----0--3-----|
-----------------0---------------4-----------|
------------0--------------------------------|
---------------------------------------------|
---------------------------3-----------------|
-------3---------3---------------------------|


  Q    E  E  E   E  E  E  E  H        Q    E   
-------------5--10--8--7--5--5--------4-------|
-------5--6---------------------------3-------|
--7-----------------------------------4-------|
--0-------------------------------------------|
-----------------------------7----------------|
----------------------------------------------|


  Q    E  E  E   E  E  E  E  Q    Q    Q    E    
-------------5--10--8--7--5--5----4----5-------||
-------5--6-----------------------3----5-------||
--7-------------------------------4----5-------||
--0--------------------------------------------||
-----------------------------7-----------------||
-----------------------------------------------||




Duration Legend
---------------
W - whole
H - half
Q - quarter
E - 8th
S - 16th
T - 32nd
X - 64th
. - note dotted
|-n-|  - n-tuplets


Tablature Legend
----------------
L - tied note
x - dead note
g - grace note
(n) - ghost note
> - accentuded note
NH - natural harmonic
AH - artificial harmonic
TH - tapped harmonic
SH - semi harmonic
PH - pitch harmonic
h - hammer on
p - pull off
b - bend
br - bendRelease
pb - preBend
pbr - preBendRelease
brb - bendReleaseBend
\n/ - tremolo bar dip
\n - tremolo bar dive
-/n - tremolo bar Release up
/n\ - tremolo bar inverted dip
/n - tremolo bar return
-\n - tremolo bar Release down
S - shift slide
s - legato slide
/ -  slide into from below or out of upwards
\ -  slide into from above or out of downwards
~ - vibrato
W - wide vibrato
tr - trill
TP - tremolo picking
T - tapping
S - slap
P - pop
< - fade in
^ - brush up
v - brush down
Добавлено: 27.04.2012
Вам также может быть интересно:
Другие материалы по этой песне:
  • Аккорды и текст

Страница создана 27.04.2012
http://primanota.ru/gorod/aquarium-chords.htm
Привет, Гость.
Предлагаем пройти революционный курс по гитаре.
Подарок от PrimaNota.Ru, забирай!