PrimaNota.ru - самый крупный в мире бесплатный архив песенных текстов, аккордов, табулатур и нот


Gorkys Zygotic Mynci - Gwres Prynhawn - аккорды и текст, таба, видео

Регистрация Запомнить меня
Войти через:  Facebook Google Twitter Vk Yandex Mail.ru

Gorkys Zygotic Mynci - Gwres Prynhawn - аккорды и текст, таба, видео

Печатать
Просмотров: 120
Gwres Prynhawn
Gorkys Zygotic Mynci
Gorky's Zygotic Mynci - 'GWRES PRYNHAWN' (Track 05 from the 1994 album 'Tatay')

Hello. This is a lovely, very enjoyable to play and not difficult song. I got the lyrics from
http://www.gorkys.freeserve.co.uk/gorkys/disco/lyrics/tgwres.htm
Cheers.




INTRO:

e ----------------------------------------|
B --------7-----8--7----------------7-----|
G -----4-----4--------4----------6-----6--|  [x4]
D --5--------------------5--5/7-----------|
A ----------------------------------------|
E ----------------------------------------|
(From the 2nd time on, singing ahhh ahhh...)



VERSE 1:

C#m        B         C#m      B
Dawnsio 'mlaen i'r gwres prynhawn
        F#m         G#m     C#m F#m   E   G#m   E   G#m
A rwy'n addo erbyn yfori byddai wedi mynd
  (B)    C#m      B          C#m      B
A rwy'n dawnsio mlaen i'r gwres yn y nos
        F#m          G#m     C#m F#m  E   G#m   E   G#m
A rwy'n addo erbyn yfori byddai wedi mynd



INTERMEZZO:

A   A   Bm   D  [x2]

Then:   E   B  (in crescendo)



VERSE 2:
        C#m        B         C#m       B
A rwy'n dawnsio 'mlaen i'r gwres yn y nos
        F#m         G#m     C#m F#m   E   G#m   E   G#m
A rwy'n addo erbyn yfori byddai wedi mynd
  (B)    C#m       B         C#m       B
A rwy'n dawnsio 'mlaen i'r gwres yn y dydd
        F#m         G#m    C#m  F#m   E   G#m   E   G#m
A rwy'n addo erbyn yfori byddai wedi mynd



INTERMEZZO:


A   A   Bm   D  [x2]

Then:   E   C#(?)  (in crescendo)



VERSE 3:
(C#) D#m       C#         D#m     C#
    Dawnsio 'mlaen i'r gwres prynhawn
        G#m          A#m     D#m G#m  F#   A#m   F#   A#m
A rwy'n addo erbyn yfori byddai wedi mynd
  (C#)   D#m      C#         D#m      C#
A rwy'n dawnsio mlaen i'r gwres yn y nos
        G#m          A#m     D#m G#m  F#   A#m   F#..........
A rwy'n addo erbyn yfori byddai wedi mynd



OUTRO:

e --------4-----5--4----------------4--|
B -----2-----2--------2----------4-----|
G --2--------------------2--2/4--------|
D -------------------------------------|
A -------------------------------------|
E -------------------------------------|

[x3]
(Singing 'ahhh ahhh' from the first time)


The last (4th) time (also singing), slows down and adds at the end the final chord xxx22x:
e --------4-----5--4----------------4--x--|
B -----2-----2--------2----------4-----2--|
G --2--------------------2--2/4--------2--|
D ----------------------------------------|
A ----------------------------------------|
E ----------------------------------------|





******************************
Добавлено: 20.06.2015
Другие материалы по этой песне:
  • Аккорды и текст

Страница создана 25.03.2014
http://primanota.ru/gorkys-zygotic-mynci/gwres-prynhawn-chords.htm
Привет, Гость.
Предлагаем пройти революционный курс по гитаре.
Подарок от PrimaNota.Ru, забирай!