PrimaNota.ru - самый крупный в мире бесплатный архив песенных текстов, аккордов, табулатур и нот


Gorillaz - White Light - таба, бас-таба, видео

Регистрация Запомнить меня
Войти через:  Facebook Google Twitter Vk Yandex Mail.ru

Gorillaz - White Light - таба, бас-таба, видео

Печатать
Просмотров: 338
Авторы музыки: Gorillaz

me thinks this is da best song an the album. why? becuase i do.

e|------------------------------------------------------------------|
B|------------------------------------------------------------------|
G|------------------------------------------------------------------|
D|------------------------------------------------------------------|
A|------------------------------------------------------------------|
E|---7-7-7-7-7-7-7-7-7-\3-3-3-3-3-3-3-3-3--7-7-7-6-3----------------|

e|------------------------------------------------------------------|
B|------------------------------------------------------------------|
G|-----------0---------------0--------------0-----------0-----------|
D|-----------5---------------5--------------5-----------5-----------|
A|------------------------------------------------------------------|
E|------------------------------------------------------------------|

nothing is played until:

e|------------------------------------------------------------------|
B|---------12 Bend as high as u can --------------------------------|
G|------------------------------------------------------------------|
D|------------------------------------------------------------------|
A|------------------------------------------------------------------|
E|------------------------------------------------------------------|

e|------------------------------------------------------------------|
B|---12-12-12-12-12-11-11-10-10-------------------------------------|
G|------------------------------------------------------------------|
D|------------------------------------------------------------------|
A|------------------------------------------------------------------|
E|------------------------------------------------------------------|
Добавлено: 30.06.2012
Другие материалы по этой песне:

Страница создана 07.03.2012
http://primanota.ru/gorillaz/white-light-chords.htm
Привет, Гость.
Предлагаем пройти революционный курс по гитаре.
Подарок от PrimaNota.Ru, забирай!