PrimaNota.ru - самый крупный в мире бесплатный архив песенных текстов, аккордов, табулатур и нот


Gorillaz - Orchestral - таба, видео

Регистрация Запомнить меня
Войти через:  Facebook Google Twitter Vk Yandex Mail.ru

Gorillaz - Orchestral - таба, видео

Печатать
Просмотров: 144
Авторы музыки: Gorillaz

e|--------------------------0~----1~-------3~-5~----------|
B|--3--3--3--3--3--3--3--3--3--3--3--3--3--3--3--3--3--3--|
G|--3--3--3--3--3--3--3--3--3--3--3--3--3--3--3--3--3--3--|
D|--3--3--3--3--3--3--3--3--3--3--3--3--3--3--3--3--3--3--|
A|--------------------------------------------------------|
E|--------------------------------------------------------|

e|--0~----1~----3~----5~----------4~----2~----0~----------|
B|--3--3--3--3--2--2--2--2--3~----0--0--0--0--0--0--0--3~-|
G|--3--3--3--3--3--3--3--3--2--2--1--1--1--1--1--1--1--1--|
D|--3--3--3--3--3--3--3--3--3--3--2--2--2--2--2--2--2--2--|
A|--------------------------------------------------------|
E|--------------------------------------------------------|

e|--2~-------------------------------------0--0--0--0--0--...
B|--------4~-------------------0~----------0--0--0--0--0--...
G|--4--4--4--4~-2~----2~-3~-4~-1--1--1--1--1--1--1--1--1--...
D|--4--4--4--4--4--4--4--4--4--2--2--2--2--2--2--2--2--2--...
A|--2--2--2--2--2--2--2--4--2--2--2--2--2--2--2--2--2--2--...
E|--------------------------------------------------------...
Добавлено: 31.07.2012
Другие материалы по этой песне:
  • Аккорды и текст

Страница создана 31.07.2012
http://primanota.ru/gorillaz/orchestral-chords.htm
Привет, Гость.
Предлагаем пройти революционный курс по гитаре.
Подарок от PrimaNota.Ru, забирай!