PrimaNota.ru - самый крупный в мире бесплатный архив песенных текстов, аккордов, табулатур и нот


Gorillaz - All Alone - аккорды и текст, таба, бас-таба, видео

Регистрация Запомнить меня
Войти через:  Facebook Google Twitter Vk Yandex Mail.ru

Gorillaz - All Alone - аккорды и текст, таба, бас-таба, видео

Печатать
Просмотров: 290
Уроки эстрадного вокала в Санкт-Петербурге
Авторы музыки: Rodney Hylton Smith, Gorillaz, Simon Tong

All Alone
Gorillaz
Main Riff
E|-----------------------------------------------|
B|-----------------------------------------------|
G|-----9-8-7------------7-------7-6-5--4-4-4-5-7-|
D|-7-7-------10-7-7-10------5-5------------------|
A|-----------------------------------------------|
E|-----------------------------------------------|
 
middle
E|------------------------------|
B|------------------------------| (you may want to change some
G|-14p12-14p12-12---------------|  of the pull ups to slides)
D|----------------12--12/14-----|
A|------------------------------|
E|------------------------------|

E|--------------------------------------------------------|
B|--------------------------------------------------------|
G|--14p12-14p12-12-------------------------------9b-9b-9b-|
D|-----------------12h14-12h14-10-10h12-10h12-9-----------|
A|--------------------------------------------------------|
E|--------------------------------------------------------|

E|--------------------------|
B|--------------------------|
G|-14p12-14p12-12-----------|
D|----------------12--12/14-|
A|--------------------------|
E|--------------------------|

End
E|--------------------------------------------------------------------|
B|--------------------------------------------------------------------|
G|-14p12-14p12-12----------------------14p12-14p12-12--14p12-14p12-14-|
D|----------------12--12/14\12/14--14---------------------------------|
A|--------------------------------------------------------------------|
E|--------------------------------------------------------------------|

E|-----------------------------------|
B|-----------------------------------|
G|-14p12-14p12-12--------------------|
D|----------------12--12p10-12p10-10-|
A|-----------------------------------|
E|-----------------------------------|
Добавлено: 01.10.2013
Другие материалы по этой песне:
  • Аккорды и текст

Страница создана 12.06.2012
http://primanota.ru/gorillaz/all-alone-chords.htm
Привет, Гость.
Предлагаем пройти революционный курс по гитаре.
Подарок от PrimaNota.Ru, забирай!