PrimaNota.ru - самый крупный в мире бесплатный архив песенных текстов, аккордов, табулатур и нот


Gorilla Biscuits - Things We Say - текст песни, таба, видео

Регистрация Запомнить меня
Войти через:  Facebook Google Twitter Vk Yandex Mail.ru

Gorilla Biscuits - Things We Say - текст песни, таба, видео

Печатать
Просмотров: 137
-------------------------------------------------------------------------------
                       THINGS WE SAY - Gorilla Biscuits
-------------------------------------------------------------------------------

From www.e-tabs.org
BY DJOLE   fatdjole@ptt.yu

   Intro
E|-----------------------------------------------------------|
B|-----------------------------------------------------------|
C|-----------------------------------------------------------|
D|--7-7-7--6-6-6--9-9-9--7-7-7---7-7-7--6-6-6--9-9-9--2-2----|
A|--5-5-5--4-4-4--9-9-9--7-7-7---5-5-5--4-4-4--9-9-9--2-2----|
E|----------------7-7-7--5-5-5-----------------7-7-7--0-0----|

   Verse
E|-------------------------------|
B|-------------------------------|
C|----------------------------\--|
D|--7-7-7--9-6--9-9-9--7-7-7-----|x4
A|--7-7-7--7-4--9-9-9--5-5-5-----|
E|--5-5-5-------7-7-7------------|

  Chorus
E|------------------------------------------------------|
B|------------------------------------------------------|
C|------------------------------------------------------|
D|--9-9-9-9-9-9-9-9--9--11--9---4-4-4-4-4-4-4--9--4--7--|
A|--7-7-7-7-7-7-7-7--7--9---7---4-4-4-4-4-4-4--7--4--5--|
E|------------------------------2-2-2-2-2-2-2-----2-----|

E|-----------------------------|
B|-----------------------------|
C|-----------------------------|
D|--9-9-9-9-9-9-9-9--9--11--9--|
A|--7-7-7-7-7-7-7-7--7--9---7--|
E|-----------------------------|

E|-----------------------------------------------------------|
B|-----------------------------------------------------------|
C|-----------------------------------------------------------|
D|--7-7-7--6-6-6--9-9-9--7-7-7---7-7-7--6-6-6--9-9-9--2-2----|
A|--5-5-5--4-4-4--9-9-9--7-7-7---5-5-5--4-4-4--9-9-9--2-2----|
E|----------------7-7-7--5-5-5-----------------7-7-7--0-0----|

 Verse
E|-------------------------------|
B|-------------------------------|
C|----------------------------\--|
D|--7-7-7--9-6--9-9-9--7-7-7-----|x4
A|--7-7-7--7-4--9-9-9--5-5-5-----|
E|--5-5-5-------7-7-7------------|

  Chorus
E|------------------------------------------------------|
B|------------------------------------------------------|
C|------------------------------------------------------|
D|--9-9-9-9-9-9-9-9--9--11--9---4-4-4-4-4-4-4--9--4--7--|
A|--7-7-7-7-7-7-7-7--7--9---7---4-4-4-4-4-4-4--7--4--5--|
E|------------------------------2-2-2-2-2-2-2-----2-----|

E|-----------------------------|
B|-----------------------------|
C|-----------------------------|
D|--9-9-9-9-9-9-9-9--9--11--9--|
A|--7-7-7-7-7-7-7-7--7--9---7--|
E|-----------------------------|

E|------------------------------------------------------------|
B|------------------------------------------------------------|
C|------------------------------------------------------------|
D|--7-7-7--6-6-6--9-9-9--7-7-7---7-7-7--6-6-6--9-9-9--2-2--7--|
A|--5-5-5--4-4-4--9-9-9--7-7-7---5-5-5--4-4-4--9-9-9--2-2--7--|
E|----------------7-7-7--5-5-5-----------------7-7-7--0-0--5--|

E|---------------------------------|
B|---------------------------------|
C|---------------------------------|
D|--7-7-7-7------------------------|
A|--7-7-7-7------------------------|
E|--5-5-5-5------------------------|

E|-----------------------------------|
B|-----------------------------------|
C|-----------------------------------|
D|--4-4-4-4-4--7-7-7-7-7--7-7-7-7-7--|
A|--4-4-4-4-4--5-5-5-5-5--7-7-7-7-7--|
E|--2-2-2-2-2-------------5-5-5-5-5--|

E|-----------------------------------|
B|-----------------------------------|
C|-----------------------------------|
D|--4-4-4-4-4--7-7-7-7-7--9-9-9-9-9--|
A|--4-4-4-4-4--5-5-5-5-5--7-7-7-7-7--|
E|--2-2-2-2-2------------------------|

E|-----------------------------------|
B|-----------------------------------|
C|-----------------------------------|
D|--4-4-4-4-4--7-7-7-7-7--7-7-7-7-7--|
A|--4-4-4-4-4--5-5-5-5-5--7-7-7-7-7--|
E|--2-2-2-2-2-------------5-5-5-5-5--|

E|----------------------------------------------------|
B|----------------------------------------------------|
C|----------------------------------------------------|
D|--4-4-4-4-4--7-7-7-7-7--9-9-9-9-9--7-7-7-7--7-------|
A|--4-4-4-4-4--5-5-5-5-5--7-7-7-7-7--5-5-5-5--7-------|
E|--2-2-2-2-2---------------------------------5-------|

E|----------------------------     -----------------------|
B|----------------------------     -----------------------|
C|----------------------------\    -----------------------|
D|---------------------------- |x2 --7--------------------|
A|---------7-4---------5-5-5--/    --7--7-4--------5-5-5--|
E|--5-5-5-------7-7-7---------     --5-------7-7-7--------|

E|------------------------|
B|------------------------|
C|------------------------|
D|---------------------7--|
A|---------7-4--9-9-9--5--|
E|--5-5-5-------7-7-7-----|

 Chorus
E|------------------------------------------------------|
B|------------------------------------------------------|
C|------------------------------------------------------|
D|--9-9-9-9-9-9-9-9--9--11--9---4-4-4-4-4-4-4--9--4--7--|
A|--7-7-7-7-7-7-7-7--7--9---7---4-4-4-4-4-4-4--7--4--5--|
E|------------------------------2-2-2-2-2-2-2-----2-----|

E|-----------------------------|
B|-----------------------------|
C|-----------------------------|
D|--9-9-9-9-9-9-9-9--9--11--9--|
A|--7-7-7-7-7-7-7-7--7--9---7--|
E|-----------------------------|

E|------------------------------------------------------------||
B|------------------------------------------------------------||
C|------------------------------------------------------------||
D|--7-7-7--6-6-6--9-9-9--7-7-7---7-7-7--6-6-6--9-9-9--2-2--7--||
A|--5-5-5--4-4-4--9-9-9--7-7-7---5-5-5--4-4-4--9-9-9--2-2--7--||
E|----------------7-7-7--5-5-5-----------------7-7-7--0-0--5--||

-------------------------------------------------------------------------------
Добавлено: 08.03.2012
Другие материалы по этой песне:
  • Аккорды и текст

Страница создана 08.03.2012
http://primanota.ru/gorilla-biscuits/things-we-say-chords.htm
Привет, Гость.
Предлагаем пройти революционный курс по гитаре.
Подарок от PrimaNota.Ru, забирай!