PrimaNota.ru - самый крупный в мире бесплатный архив песенных текстов, аккордов, табулатур и нот


Gorilla Biscuits - No Reason Why - текст песни, таба, видео

Регистрация Запомнить меня
Войти через:  Facebook Google Twitter Vk Yandex Mail.ru

Gorilla Biscuits - No Reason Why - текст песни, таба, видео

Печатать
Просмотров: 166
From e-Tabs.org

-------------------------------------------------------------------------------
                         NO REASON WHY - Gorilla Biscuits
-------------------------------------------------------------------------------

BY DJOLE   fatdjole@ptt.yu

   Intro (bass + guitar)
E|-----------------------------------------------------------|
B|-----------------------------------------------------------|
C|-----------------------------------------------------------|
D|-----------------------------7-----------------------------|
A|---------7---7---------------7-------7---7-----------------|
E|--5-5--7---7---7-7-7--5-5-4--5--5--7---7---7-7-7--5-5-4----|

E|--------------------------------------------|
B|--------------------------------------------|
C|--------------------------------------------|
D|--7-7--9-9--9-9--9--6--7-7--9-9--9-9--9--6--|
A|--7-7--7-7--9-9--7--6--7-7--7-7--9-9--7--6--|
E|--5-5-------7-7-----4--5-5-------7-7-----4--|

E|------------------------------------------------|
B|------------------------------------------------|
C|------------------------------------------------|
D|--7-7--9-9--9-9--9--6--7-7--9-9--9-9--9--6--7-7-|
A|--7-7--7-7--9-9--7--6--7-7--7-7--9-9--7--6--7-7-|
E|--5-5-------7-7-----4--5-5-------7-7-----4--5-5-|

   Verse
E|----------------------------------------------------------------|
B|----------------------------------------------------------------|
C|-------------------------------------------------------------\--|
D|--7-7-7-7-7--9-9-9-9--7--6--7-7-7-7-7--9-9-9-9--7--6------------|x2
A|--7-7-7-7-7--7-7-7-7--5--6--7-7-7-7-7--7-7-7-7--5--6------------|
E|--5-5-5-5-5--------------4--5-5-5-5-5--------------4------------|

E|-----------------------------------------|
B|-----------------------------------------|
C|-----------------------------------------|
D|--5-5-5-5--7-7-7-7--5-5-5-5--9-9-9-9-----|
A|--5-5-5-5--7-7-7-7--5-5-5-5--7-7-7-7-----|
E|--3-3-3-3--5-5-5-5--3-3-3-3--------------|

E|----------------------------------------------------------------|
B|----------------------------------------------------------------|
C|-------------------------------------------------------------\--|
D|--7-7-7-7-7--9-9-9-9--7--6--7-7-7-7-7--9-9-9-9--7--6------------|x2
A|--7-7-7-7-7--7-7-7-7--5--6--7-7-7-7-7--7-7-7-7--5--6------------|
E|--5-5-5-5-5--------------4--5-5-5-5-5--------------4------------|


E|-----------------------------------------------|
B|-----------------------------------------------|
C|-----------------------------------------------|
D|--7-7-7-7-7-7----------------------------------|
A|--7-7-7-7-7-7----------------------------------|
E|--5-5-5-5-5-5----------------------------------|

   Chorus
E|-----------------------------------------------|
B|-----------------------------------------------|
C|--------------------------------------------\--|
D|--7-7--9-9--9-9--9--6--7-7--9-9--9-9--9--6-----|x2
A|--7-7--7-7--9-9--7--6--7-7--7-7--9-9--7--6-----|
E|--5-5-------7-7-----4--5-5-------7-7-----4-----|

   Verse
E|----------------------------------------------------------------|
B|----------------------------------------------------------------|
C|-------------------------------------------------------------\--|
D|--7-7-7-7-7--9-9-9-9--7--6--7-7-7-7-7--9-9-9-9--7--6------------|x2
A|--7-7-7-7-7--7-7-7-7--5--6--7-7-7-7-7--7-7-7-7--5--6------------|
E|--5-5-5-5-5--------------4--5-5-5-5-5--------------4------------|

E|-----------------------------------------|
B|-----------------------------------------|
C|-----------------------------------------|
D|--5-5-5-5--7-7-7-7--5-5-5-5--9-9-9-9-----|
A|--5-5-5-5--7-7-7-7--5-5-5-5--7-7-7-7-----|
E|--3-3-3-3--5-5-5-5--3-3-3-3--------------|

E|--------------------------------------------------------------|
B|--------------------------------------------------------------|
C|--------------------------------------------------------------|
D|--7-7-7-7--7--6-6-6--4-4-4--7-7-7-7--7--6-6-6-6--9-9-9-9------|
A|--7-7-7-7-------------------7-7-7-7---------------------------|
E|--5-5-5-5-------------------5-5-5-5---------------------------|

E|-------------------------------------------------------------------|
B|-------------------------------------------------------------------|
C|-------------------------------------------------------------------|
D|--7-7-7-7--7--6-6-6--4-4-4--7-7-7-7--7--6-6-6-6--9-9-9-9--7-7-7-7--|
A|--7-7-7-7-------------------7-7-7-7-----------------------7-7-7-7--|
E|--5-5-5-5-------------------5-5-5-5-----------------------5-5-5-5--|

   Chorus
E|--------------------------------------------      ----------||
B|--------------------------------------------      ----------||
C|--------------------------------------------\     ----------||
D|--7-7--9-9--9-9--9--6--7-7--9-9--9-9--9--6-- |x2  ---7--7---||
A|--7-7--7-7--9-9--7--6--7-7--7-7--9-9--7--6--/     ---7--7---||
E|--5-5-------7-7-----4--5-5-------7-7-----4--      ---5--5---||

-------------------------------------------------------------------------------
Добавлено: 14.05.2012
Другие материалы по этой песне:
  • Аккорды и текст

Страница создана 02.05.2012
http://primanota.ru/gorilla-biscuits/no-reason-why-chords.htm
Привет, Гость.
Предлагаем пройти революционный курс по гитаре.
Подарок от PrimaNota.Ru, забирай!