PrimaNota.ru - самый крупный в мире бесплатный архив песенных текстов, аккордов, табулатур и нот


Gorilla Biscuits - Gorilla Biscuits - текст песни, таба, видео

Регистрация Запомнить меня
Войти через:  Facebook Google Twitter Vk Yandex Mail.ru

Gorilla Biscuits - Gorilla Biscuits - текст песни, таба, видео

Печатать
Просмотров: 159
not really sure how this goes, just listen to the song.

x=mute

Intro:
e|----------0--------------0-------------------------------|
b|-----------0--------------0------------------------------|
g|-4---4--4---0---4---4--4---0--4-x-x-4-x-x-4-x-x-4-x-x-4--|
d|-4---4--4-------4---4--4------4-x-x-4-x-x-4-x-x-4-x-x-4--|
a|-2---2--2-------2---2--2------2-x-x-2-x-x-2-x-x-2-x-x-2--|
E|---------------------------------------------------------|


verse: 
Put gorilla biscuits in your head
one more time and you'll be dead
better watch out, better be scared
headin' for the dragon's lair
e|---------|x6  
b|---------|    
g|---7---5-|    
d|-7-7-5-5-|    
a|-7-5-5-3-|    
E|-5---3---|    

Chorus:
G-O-R-I-Double L-A (Biscuits!)
G-O-R-I-Double L-A (Biscuits!)
G-O-R-I-Double L-A (Biscuits!)
G-O-R-I-Double L-A (Biscuits!)
e|----------------|
b|----------------|
g|----------------|
d|-7-7-7-7-7-7-7-8|
a|-7-7-7-7-7-7-7-8|
E|-5-5-5-5-5-5-5-6|

Verse 2:
Put gorilla biscuits in your fucking HEAD!
one more time and you'll be DEAD!
better watch out, better be SCARED!
headin' for the dragon's LAIR!
(slower)
e|-----------------|x 6e
b|-----------------|
g|-----7-7-----5-5-|
d|-9-9-7-7-7-7-5-5-|
a|-9-9-5-5-7-7-3-3-|
E|-7-7-----5-5-----|

e|------------------|x4
b|------------------|
g|-----7-7-----5555-|
d|-9-9-7-7-7-7-5555-|
a|-9-9-5-5-7-7-3333-|
E|-7-7-----5-5------|
  P.M.-    P.M.----|


order:

intro
verse
chorus
verse
chorus
verse 2
chorus

i hope you like it. its probly worng but being wrong is punk rock, which is great for this song.
Добавлено: 22.03.2012
Другие материалы по этой песне:
  • Аккорды и текст

Страница создана 22.03.2012
http://primanota.ru/gorilla-biscuits/gorilla-biscuits-chords.htm
Привет, Гость.
Предлагаем пройти революционный курс по гитаре.
Подарок от PrimaNota.Ru, забирай!