PrimaNota.ru - самый крупный в мире бесплатный архив песенных текстов, аккордов, табулатур и нот


Gorilla Biscuits - Good Intention - бас-таба, видео

Регистрация Запомнить меня
Войти через:  Facebook Google Twitter Vk Yandex Mail.ru

Gorilla Biscuits - Good Intention - бас-таба, видео

Печатать
Просмотров: 122
Artist: Gorilla Biscuits
Song: Good Intention
Album: Start Today

Intro

G ---------------------------------------------|
D ---------------------------------------------|
A --444----------------444-------77------------|
E ------5555-77777777------5555----77-99-77----|

Verse

G ----------------|----------------------------|
D ----------------|----------------------------| x2
A ---77-----------|x4--------------------------|
E ------77-99-77--|----7777-7------------------|

End

G ---------------------------------------------|
D ---------------------------------------------|
A --444----------------444-------77---------77-|
E ------5555-77777777------5555----77-99-77----|


My first tab...
Добавлено: 31.03.2012
Другие материалы по этой песне:
  • Аккорды и текст

Страница создана 31.03.2012
http://primanota.ru/gorilla-biscuits/good-intention-chords.htm
Привет, Гость.
Предлагаем пройти революционный курс по гитаре.
Подарок от PrimaNota.Ru, забирай!