PrimaNota.ru - самый крупный в мире бесплатный архив песенных текстов, аккордов, табулатур и нот


Goribor - Moje Misli - аккорды и текст, видео

Регистрация Запомнить меня
Войти через:  Facebook Google Twitter Vk Yandex Mail.ru

Goribor - Moje Misli - аккорды и текст, видео

Печатать
Просмотров: 55
Moje Misli
Goribor
[Intro] 

A - main riff:
    |     3x     |
E|--|------------|-----------------------|
B|--|------------|-----------------------|
G|--|------------|-----------------------|
D|--|-2---2------|----2---2--------------|
A|--|-0---0--3r0-|----0---0--3r0---------|
E|--|------------|------------------3r0--|

x6

Solo guitar (after 4th main riff):
E|---------------|
B|---------------|
G|--5------5-----|
D|-----7------7--|
A|---------------|
E|---------------|

x4

[Verse 1}

A5 (main riff)
Ima noci kada
A5
sanjam i stvaram
A5
ima noci kada
A5
svemu se nadam

A5 (main riff)
Ima noci kada
A5
idem do kraja
A5
to je noc
A5
koje bojim se sada


[Refrain]

Refrain solo:
E|------------------------------------|
B|------------------------------------|
G|--5-------5-----6/7--7--5--7--5-----|
D|-----7-------7-------------------7--|
A|------------------------------------|
E|------------------------------------|


[Verse 2]

A5 (main riff)
Ti ne znas
A5
ti ne znas
A5
kako moje misli
A5
lome me

A5 (main riff)
Ti ne znas
A5
ti ne znas
A5
kako moje misli
A5
lome sve

A5 (main riff)
Refrain x7

Transkripcija: Stevan Golubovic
Добавлено: 18.12.2015
Другие материалы по этой песне:
  • Аккорды и текст

Страница создана 18.12.2015
http://primanota.ru/goribor/moje-misli-chords.htm
Привет, Гость.
Предлагаем пройти революционный курс по гитаре.
Подарок от PrimaNota.Ru, забирай!