PrimaNota.ru - самый крупный в мире бесплатный архив песенных текстов, аккордов, табулатур и нот


Gorguts - With Their Flesh Hell Create - текст песни, таба, видео

Регистрация Запомнить меня
Войти через:  Facebook Google Twitter Vk Yandex Mail.ru

Gorguts - With Their Flesh Hell Create - текст песни, таба, видео

Печатать
Просмотров: 102
--- G O R G U T S  --- 
                        "With Their Flesh, He'll Create" 
                     From album: "The Erosion Of Sanity" 
                     

                            TABULATURE LEGEND: 
                   " - tremolo             h - hammer on            
                   ~ - vibrato             \ - slide down 
                   p - pull off            / - slide down 
                  tr - trill               ^ - pinch harmonics      
                   = - sustained note      b - bend string          
                p.m. - palm muting         t - tapping 

TUNING: C# [C#,F#,B,E,G#,C#] 

[Intro] 
|------------------------------|-----------------------------------| 
|------------------------------|-----------------------------------| 
|------------------------------|-----------------------------------| 
|------------------------------|-----------------------------------| 
|-5-2-4------------------------|-5-2-4-----------------------------| 
|-3-0-2------------------------|-3-0-2-----------------------------| 
| . . .                        | . . .                             | 
|------------------------------|-----------------------------------| 
|------------------------------|-----------------------------------| 
|------------------------------|---------------4-0-5-0-------------| 
|-3-0-2"...--4-0-5-0-3-0-6"...-|-3-0-2"..--2-0---------5-0-1-0-2-0-| 

[Riff 1 (x4)] 
||------------------------------|-----------------------------------|| 
||o-----------------------------|----------------------------------o|| 
||------------------------------|-----------------------------------|| 
||------------------------------|-----------------------------------|| 
||o-5-2-------------------------|-5-2----------4-0-5-0-------------o|| 
||--3-0-2"...-4-0-5-0-3-0-6"...-|-3-0-2"..-2-0---------5-0-1-0-2-0--|| 
    . .       . . . . . .         . .      . . . . . . . . . . . . 

[Riff 2 (x4)] 
||------------------------------|---------------------------|| 
||o-----------------------------|--------------------------o|| 
||------------------------------|---------------------------|| 
||--------------5---------------|---------------------------|| 
||o-5-0-6-0-5-0---3"-1"-5-0-----|-----------4"-3"----3"-2"-o|| 
||--------------------------3-0-|-2-2-5"...-------4"--------|| 
|   . . . . . . .       . . . . | . .                        | 
||------------------------------|---------------------------|| 
||o-----------------------------|---------------------------|| 
||------------------------------|---------------------------|| 
||--------------5---------------|-----------6"-5"----5"-4"--|| 
||o-5-0-6-0-5-0---3"-1"-5-0-----|-----------------6"-------o|| 
||--------------------------3-0-|-2-2-5"...-----------------|| 
    . . . . . .         . . . .   . . 


[Riff 3 (x3)]                          [Outro 1] 
||-----------------------------------||-----------------------------| 
||o---------------------------------o||-----------------------------| 
||-----------------------------------||-----------------------------| 
||-----------------------------------||-----------------------------| 
||o---------3/4-----------------4\3-o||---------3S4-----------------| 
||--3-0-5-0-1/2-4-0-2-0-4-0-5-0-2\1--||-3-0-5-0-1S2-4-0-2-0-4-0-5-0-| 
    . . . .     . . . . . . . .         . . . .     . . . . . . . . 

[RIFF 1 (x4)] [RIFF 2 (x2)] 

[Outro 2] 
|-------------|---------------------------------| 
|-------------|---------------------------------| 
|-------------|---------------------------------| 
|-------------|---------------------------------| 
|-5-0-6-0-5-0-|-4-------------------------------| 
|-------------|-2-------------------------------| 
  . . . . . . | .                               | 
              |---------------------------------| 
              |---------------------------------| 
              |---------------------5-0-4-0-2-0-| 
              |-2-0-6-0-5-0-3-0-5-0-------------| 

                                      [Riff 4 (x4)] 
|---------------------------------| ||-----------------------------------|| 
|---------------------------------| ||o---------------------------------o|| 
|---------------------------------| ||-----------------------------------|| 
|---------------------------------| ||-----------------------------------|| 
|---------------------5-0-4-0-2-0-| ||o---------------------5-0-4-0-2-0-o|| 
|-2-0-6-0-5-0-3-0-5-0-------------| ||--2-0-6-0-5-0-3-0-5-0--------------|| 
                                        . . . . . . . . . . . . . . . . 

{Riff 5 (x5)] 
||-----------------------|------------------------------|| 
||o----------------------|-----------------------------o|| 
||-----------------------|------------------------------|| 
||----------------6/7\6--|-----------------4\3---3------|| 
||o-4--3-----3/4---------|-4--3-----3--4/5-2\1-4-1-4/5-o|| 
||--2--1--0--1/2--4/5\4--|-2--1--0--1--2/3-----2---2/3--|| 
|         .              |       .                       | 
||-----------------------|------------------------------|| 
||o----------------------|-----------------------------o|| 
||-----------------------|------------------------------|| 
||-----------------------|-----------------4\3---3------|| 
||o-4--3-----3/4--3/4\3--|-4--3-----3--4/5-2\1-4-1-4/5-o|| 
||--2--1--0--1/2--4/5\4--|-2--1--0--1--2/3-----2---2/3--|| 
          .                      . 

[Outro 3] 
|----------------------|--------------------- 
|----------------------|--------------------- 
|----------------------|--------------------- 
|---------------6/7\6--|-----------------4\3- 
|-4--3-----3/4---------|-4--3-----3--4/5-2\1- 
|-2--1--0--1/2--4/5\4--|-2--1--0--1--2/3----- 
|       .              |       .    
|----------------------|--------------------- 
|----------------------|--------------------- 
|----------------------|--------------------- 
|----------------------|-----------------4\3- 
|-4--3-----3/4--3/4\3--|-4--3-----3--4/5-2\1- 
|-2--1--0--1/2--4/5\4--|-2--1--0--1--2/3----- 
        .                      .              

-|----------------------------------------------| 
-|----------------------------------------------| 
-|----------------------------------------4-5-4-| 
-|---3-------------------3--------5-6-5---2-3-2-| 
-|-4-1-4-3----------2"-4-1-44-3-4-3-4-3-4-------| 
-|-2---2-1-1"-3"-4"----2---22-1-2-------2-------| 
 | . . . .             . . .. . .               | 
-|----------------------------------------------| 
-|----------------------------------------------| 
-|----------------------------------------------| 
-|---3-------------------3----------------------| 
-|-4-1-4-3-------------4-1-44-3-----------------| 
-|-2---2-1-------------2---22-1-----------------| 
   . . . .             . . .. . 

[Riff 6 (x4)] 
||------------------------|-----------------------------|| 
||o-----------------------|----------------------------o|| 
||------------------------|----------------------4-5-4--|| 
||------------------------|--------------5-6-5---2-3-2--|| 
||o-4-1"---------------2"-|----1"-44-3-4-3-4-3-4-------o|| 
||--2----2"-1"..-3"-4"----|-2"----22-1-2-------2--------|| 
                                  .. . . . . . . . . . 

[Riff 7 (x3)] 
||--------------------------------|| 
||o------------------------------o|| 
||--------------------------------|| 
||--------------------------------|| 
||o----4"----4-0-5-0-----5-0-----o|| 
||--2"----1"---------5-0-----3-0--|| 
             . . . . . . . . . . 

[Outro 4] 
|----------------------------| 
|----------------------------| 
|----------------------------| 
|----------------------------| 
|----4"----4-0-5-0-----5-0-5-| 
|-2"----1"---------5-0-----3-| 
           . . . . . . . . . 

[Riff 8 (x3)] 
||-----------------------------------------------------|| 
||o---------------------------------------------------o|| 
||-------------------------------------------4-5-4-----|| 
||-----------------------------------5-6-5---2-3-2-----|| 
||o-1"---------------2"----1"-44-3-4-3-4-3-4-------5--o|| 
||-----2"-1"..-3"-4"----3"----22-1-2-------2-------3---|| 
                              .. . . . . . . . . . . 

[Outro 5] 
|---------------------------------------------------| 
|---------------------------------------------------| 
|------------------------------------------4-5-4----| 
|----------------------------------5-6-5---2-3-2----| 
|-1"---------------2"----1"-44-3-4-3-4-3-4-------5--| 
|----2"-1"..-3"-4"----3"----22-1-2-------2-------3--| 
                            .. . . . . . . . . . . 

[Riff 9 (x6)] 
||-------------------------------|| 
||o-------^---------------------o|| 
||--------3~~--------------------|| 
||----------------3--------------|| 
||o-2-1-1-----4-5-1-2-----------o|| 
||--3-2-2-----2-3---0-111111111--|| 
    . . .     . . . . ......... 

[Riff 10] 
|-----------------------------------------------------------------|- 
|-----------------------------------------------------------------|- 
|-----------------------------------------------------------------|- 
|-------------------------------------------------------------^---|- 
|-----2-1---1---------5-4-4-5---------2-1---1---------5-4-4-5-1~~-|- 
|-2-3-----2---2-3-5-6---------7-6-2-3-----2---2-3-5-6-------------|- 
| . . . . . . . . . . . . . . . . . . . . . . . . . . . . . .     | 
|-----------------------------------------------------------------|- 
|-----------------------------------------------------------------|- 
|-----------------------------------------------------------------|- 
|-------------------------------------------------------------^---|- 
|-----2-1---1---------5-4-4-5---------2-1---1---------5-4-4-5-1~~-|- 
|-2-3-----2---2-3-5-6---------7-6-2-3-----2---2-3-5-6-------------|- 
  . . . . . . . . . . . . . . . . . . . . . . . . . . . . . . 

-|-----------------------------------------------------------------| 
-|-----------------------------------------------------------------| 
-|-----------------------------------------------------------------| 
-|-------------------------------------------------------------^---| 
-|-----2-1---1---------5-4-4-5---------2-1---1---------5-4-4-5-1~~-| 
-|-2-3-----2---2-3-5-6---------7-6-2-3-----2---2-3-5-6-------------| 
 | . . . . . . . . . . . . . . . . . . . . . . . . . . . . . .     | 
-|-----------------------------------------------------------------| 
-|-----------------------------------------------------------------| 
-|-----------------------------------------------------------------| 
-|-----4-3---3---------7-6-6-7---------4-3---3---------7-6-6-7-^---| 
-|-4-5-----4---4-5-7-8---------9-8-4-5-----4---4-5-7-8---------1~~-| 
-|-----------------------------------------------------------------| 
   . . . . . . . . . . . . . . . . . . . . . . . . . . . . . . 

[RIFF 5 (x4)] [RIFF 3 (x8)] 

[Ending] 
|------------| 
|------------| 
|------------| 
|------------| 
|-5-2-4------| 
|-3-0-2------| 
  . . . 

END OF SONG
Добавлено: 29.07.2013
Другие материалы по этой песне:

Страница создана 27.04.2012
http://primanota.ru/gorguts/with-their-flesh-hell-create-chords.htm
Привет, Гость.
Предлагаем пройти революционный курс по гитаре.
Подарок от PrimaNota.Ru, забирай!