PrimaNota.ru - самый крупный в мире бесплатный архив песенных текстов, аккордов, табулатур и нот


Gorguts - The Erosion Of Sanity - текст песни, таба, видео

Регистрация Запомнить меня
Войти через:  Facebook Google Twitter Vk Yandex Mail.ru

Gorguts - The Erosion Of Sanity - текст песни, таба, видео

Печатать
Просмотров: 117
--- G O R G U T S  --- 
                          "The Erosion Of Sanity" 
                     From album: "The Erosion Of Sanity" 
                     

                            TABULATURE LEGEND: 
                   " - tremolo             h - hammer on            
                   ~ - vibrato             \ - slide down 
                   p - pull off            / - slide down 
                  tr - trill               ^ - pinch harmonics      
                   = - sustained note      b - bend string          
                p.m. - palm muting         t - tapping 

TUNING: C# [C#,F#,B,e,g#,c#] 

[Riff 1a] 
||---------------------------------------------------------------| 
||-------------------------------^-------------------------------| 
||-------------------------------6~---------------------------^--| 
||-----------------------7---4-7----------------------7---4-7-6~-| 
||-6--5--6-----------3/4---4--------6-------------3/4---4--------| 
||-4--3--4--11111111-1/2------------4----11111111-1/2------------| 
            ........     . . . .         ........     . . . . 

----------------------------------------------------|| 
-------------------------------^--------------------|| 
-------------------------------6~-------------------|| 
-----------------------7---4-7----------------------|| 
-6--5--6-----------3/4---4--------6-------------3/4-|| 
-4--3--4--11111111-1/2------------4----11111111-1/2-|| 
          ........     . . . .         ........    

[Riff 2 (x4)] 
||---------------------------|| 
||o-------------------------o|| 
||---------------------------|| 
||--7---4-7p6h7--------------|| 
||o---4---------4-----4p3-3-o|| 
||----------------2-5--------|| 
|   . . .       . . .         | 
||---------------------------|| 
||o-------------------------o|| 
||---------------------------|| 
||---------------------------|| 
||o-4/6-4-------------4---3-o|| 
||--2/4-2-------1-2-5---4----|| 
                . . . . . . 

[Riff 3 (x4)] 
||-------------------------|-------------------------|| 
||o------------------------|------------------------o|| 
||-------------------------|-------------------------|| 
||-------------------------|-------------------------|| 
||o-4----------5-6---5-4-5-|-4----------1-3---4-4-5-o|| 
||--2--2-5-1-1-----4-------|-2--2-5-1-1-----2--------|| 
|      . . . . . . . . . . |    . . . . . . . . . .   | 
||-------------------------|-------------------------|| 
||o------------------------|------------------------o|| 
||-------------------------|-------------------------|| 
||-------------------------|-------------------------|| 
||o-4----------5-6---5-4-5-|-4----------1-3---4-4-5-o|| 
||--2--2-5-1-1-----4-------|-2--2-5-1-1-----2--------|| 
       . . . . . . . . . .      . . . . . . . . . . 

[Riff 4]                                             x2 
||----------------------|----------------------------|---------------|| 
||o---------------------|---------------------------o|---------------|| 
||----------------------|----------------------------|---------------|| 
||---------------4------|----------------------------|---------------|| 
||o-4----4-4--7--2------|-4----4--------------------o|---------------|| 
||--2--2---2--5-----6\--|-2--2---5\--11114444-0tr1---|-11114444-0tr1-|| 
|      . .              |    . .     ........        | ........       | 
||----------------------|----------------------------|---------------|| 
||o---------------------|---------------------------o|---------------|| 
||----------------------|----------------------------|---------------|| 
||------------5--7------|----------------------------|---------------|| 
||o-4----4-7--3--5------|-4----4--------------------o|---------------|| 
||--2--2---5--------6\--|-2--2---5\--11114444-0tr1---|-11114444-0tr1-|| 
       . .                   . .     ........ 

[Outro] 
|------------------------|------------------------|- 
|------------------------|------------------------|- 
|------------------------|------------------------|- 
|------------------------|------------------------|- 
|-4----------5-6---5-4-5-|-4----------1-3---4-4-5-|- 
|-2--2-5-1-1-----4-------|-2--2-5-1-1-----2-------|- 
     . . . . . . . . . .      . . . . . . . . . . 

-|------------------------|---------------------| 
-|------------------------|---------------------| 
-|------------------------|---------------------| 
-|------------------------|---------------------| 
-|-4----------5-6---5-4-5-|-4-------------------| 
-|-2--2-5-1-1-----4-------|-2--2-5-1-1----------| 
      . . . . . . . . . .      . . . . 

[Riff 5a (x4)] 
||---------------------------|----------------------------|| 
||o--------------------------|---------------------------o|| 
||---------------------------|----------------------------|| 
||---------------------------|----------------------------|| 
||o-------444---------333----|-------444---555555--------o|| 
||--222222---222111111---111-|-222222---222------111111---|| 
|                            |                             | 
||---------------------------|----------------------------|| 
||o--------------------------|---------------------------o|| 
||---------------------------|----------------------------|| 
||---------------------------|----------------------------|| 
||o-------444---------333----|-444444777444555555888555--o|| 
||--222222---222111111---111-|----------------------------|| 

[Riff 6 (x4)] 
||----------------------------------|| 
||o--------------------------------o|| 
||----------------------------------|| 
||----------------------------------|| 
||o-7---6---5---6---7---6---5---4--o|| 
||----4---4---3---3---4---4---3---2-|| 
|   . . . . . . . . . . . . . . . .  | 
||----------------------------------|| 
||o--------------------------------o|| 
||----------------------------------|| 
||----------------------------------|| 
||o-7---6---5---6---7---6---5---4--o|| 
||----4---4---3---3---4---4---3---2-|| 
    . . . . . . . . . . . . . . . . 

[RIFF 5a (x4)] [RIFF 6 (x4)] 

[Riff 5b] 
||---------------------------------|---------------------------------|| 
||---------------------------------|---------------------------------|| 
||---------------------------------|---------------------------------|| 
||---------------------------------|---------------------------------|| 
||---------4-4-------------3-3-----|---------4-4-----5-5-5-5---------|| 
||-2-2-2-2-----2-2-1-1-1-1-----5-5-|-2-2-2-2-----2-2---------1-1-1-1-|| 
|  . . . . . . . . . . . . . . . . | . . . . . . . . . . . . . . . .  | 
||---------------------------------|---------------------------------|| 
||---------------------------------|---------------------------------|| 
||---------------------------------|---------------------------------|| 
||---------------------------------|---------------------------------|| 
||---------4-4-------------3-3-----|-4-4-4-4-7-7-4-4-5-5-5-5-8-8-5-5-|| 
||-2-2-2-2-----2-2-1-1-1-1-----5-5-|---------------------------------|| 
   . . . . . . . . . . . . . . . .   . . . . . . . . . . . . . . . . 

[Riff 1b]                                                          x3 
||-----------------------------------------------------------------||- 
||o-------------------------------^-------------------------------o||- 
||--------------------------------6~---------------------------^---||- 
||------------------------7---4-7----------------------7---4-7-6~--||- 
||o-6--5--6-----------3/4---4--------6-------------3/4---4--------o||- 
||--4--3--4--11111111-1/2------------4----11111111-1/2-------------||- 
             ........     . . . .         ........     . . . . 

-----------------------------------------------------|| 
-------------------------------^---------------------|| 
-------------------------------6~--------------------|| 
-----------------------7---4-7-----------------------|| 
-6--5--6-----------3/4---4--------6-------------6-5--|| 
-4--3--4--11111111-1/2------------4----11111111-4-3--|| 
          ........     . . . .         ........      

[Riff 7]                               x4 
||------------------|------------------||------------------|-----------------| 
||o-----------------|-----------------o||------------------|-----------------| 
||------------------|------------------||------------------|-----------------| 
||------------------|---------------3--||------------------|---------------3-| 
||o-5-----5-4-----4-|-5-----5-5-4-5---o||--5-----5-4-----4-|-5-----5-5-4-5---| 
||----3-6-----2-5---|---3-6------------||----3-6-----2-5---|---3-6-----------| 
|   . . . . . . . . | . . . . . . . .   |  . . . . . . . . | . . . . . . . . | 
|                   |                  4x                  |                 | 
||------------------|------------------||------------------|-----------------| 
||o-----------------|---------------6-o||------------------|-----------------| 
||------------------|---------7-6-7----||------------------|-----------------| 
||------------------|-7-----7----------||--5-----4---------|-----------------| 
||o-5-----5-4-----4-|---5-8-----------o||--5-----4---------|-5-----5-------1-| 
||----3-6-----2-5---|------------------||--3-----2---------|---3-6---3-2-3---| 
      . . . . . . .   . . . . . . . .                        . . . . . . . . 

|-----------------|-----------------|-----------------|-----------------| 
|-----------------|-----------------|-----------------|-----------------| 
|-----------------|-----------------|-----------------|-----------------| 
|-----------------|---------------3-|-----------------|---------------3-| 
|-5-----5-4-----4-|-5-----5-5-4-5---|-5-----5-4-----4-|-5-----5-5-4-5---| 
|---3-6-----2-5---|---3-6-----------|---3-6-----2-5---|---3-6-----------| 
| . . . . . . . . | . . . . . . . . | . . . . . . . . | . . . . . . . . | 
|-----------------|-----------------|-----------------|-----------------| 
|-----------------|---------------6-|-----------------|-----------------| 
|-----------------|---------7-6-7---|-----------------|-----------------| 
|-5-------4-------|-7-----7---------|-5-------4-------|-----------------| 
|-5-------4-------|---5-8-----------|-5-------4-------|-5-----5-------1-| 
|-3-------2-------|-----------------|-3-------2-------|---3-6---3-2-3---| 
                    . . . . . . . .                     . . . . . . . . 

|----------------------|-----------------------| 
|----------------------|-----------------------| 
|----------------------|-----------------------| 
|---------3------------|---------6--------5----| 
|-5-----5-1------------|-5-----5-4--------3----| 
|---3-6---1------------|---3-6---4--------3----| 
| . . . .              | . . . .               | 
|----------------------|-----------------------| 
|----------------------|-----------------------| 
|----------------------|-----------------------| 
|-5-------6------------|-----------------------| 
|-5-------4------------|-5-----5-7--------6----| 
|-3-------4------------|---3-6---5--------4----| 
                         . . . . 

[Riff 8 (x3)] 
||-----------------------|------------------------|| 
||o----------------------|-----------------------o|| 
||-----------------------|------------------------|| 
||----------3------------|---------6--------5-----|| 
||o-5-----5-1------------|-5-----5-4--------3----o|| 
||----3-6---1------------|---3-6---4--------3-----|| 
|   . . . .              | . . . .                 | 
||-----------------------|------------------------|| 
||o----------------------|-----------------------o|| 
||-----------------------|------------------------|| 
||----------6------------|------------------------|| 
||o-5-----5-4------------|-5-----5-7--------6----o|| 
||----3-6---4------------|---3-6---5--------4-----|| 
    . . . .                . . . . 

[Outro 2] 
|---------| 
|---------| 
|---------| 
|---------| 
|-4-4-4-4-| 
|-2-2-2-2-| 
  . . . . 

[RIFF 2 (x4)] [RIFF 3 (x4)] [RIFF 4] [RIFF 5a (x4)] [RIFF 6 (x4)] 
[RIFF 5a (x4)] [RIFF 6] [RIFF 5b] 

END OF SONG
Добавлено: 22.09.2013
Другие материалы по этой песне:

Страница создана 13.03.2012
http://primanota.ru/gorguts/the-erosion-of-sanity-chords.htm
Привет, Гость.
Предлагаем пройти революционный курс по гитаре.
Подарок от PrimaNota.Ru, забирай!