PrimaNota.ru - самый крупный в мире бесплатный архив песенных текстов, аккордов, табулатур и нот


Gorguts - Condemned To Obscurity - текст песни, таба, видео

Регистрация Запомнить меня
Войти через:  Facebook Google Twitter Vk Yandex Mail.ru

Gorguts - Condemned To Obscurity - текст песни, таба, видео

Печатать
Просмотров: 110
Gorguts - 'Condemned To Obscurity'
The Erosion Of Sanity (1993)
Roadrunner Records



________________________________________________________________________________

Gtr I (C# F# B E G# C#) - 'Luc Lemay'
Gtr II (C# F# B E G# C#) - 'Sylvain Marcoux'
Gtr III (C# F# B E G# C#) - 'Piano Intro'
Gtr IV (C# F# B E G# C#) - 'Piano Intro 2'
Gtr V *BASS* (C# F# B E) - 'Eric Guigere'


 Piano Intro (0:00)
  Q=100  Q=1H=H      Q=125
 6/8
  Gtr III
   <
   E   E  E  E  E  E    E   E  E  E  E E    Q.     Q    E    E   E  E  E  E  E
|-14--13-------------|-------------------|----------------|--------13-14-13-11-|
|--------12-11-------|-11--12------------|----------------|--------------------|
|--------------10-11-|--------10-11-10-8-|-10-----10---10-|-10--11-------------|
|--------------------|-------------------|----------------|--------------------|
|--------------------|-------------------|----------------|--------------------|
|--------------------|-------------------|----------------|--------------------|
|
| Gtr IV
|                                                            >
|  H.                   H.                  E E E  E E  E    H.
|--------------------|-------------------|----------------|--------------------|
|--------------------|-------------------|----------------|--------------------|
|--------------------|-------------------|----------------|--8-----------------|
|--------------------|-------------------|------8-------8-|--8-----------------|
|--------------------|-------------------|--6h9----6h9----|--6-----------------|
|--------------------|-------------------|----------------|--------------------|


                       H.=H   Q=1Q=125
  Gtr III
   Q.        Q     E    Q.         E   E  E
|-13--------13----13-|-14---------14--13-11-|
|--------------------|----------------------|
|--------------------|----------------------|
|--------------------|----------------------|
|--------------------|----------------------|
|--------------------|----------------------|
|
| Gtr IV
|                                  >
|  E   E  E  E  E  E    E   E  E  +Q.
|--------------------|----------------------|
|--------11-------11-|--------11-(11)-------|
|--8--11-----8-11----|--8--11---------------|
|--------------------|----------------------|
|--------------------|----------------------|
|--------------------|----------------------|


                    H.=H                     Q=1H=H
   >
   H.                H.                 Q.    E  E  E
|-13--------------|-----------------|--------14-13-----|
|-----------------|-----------------|--------------12--|
|-10--------------|-----------------|------------------|
|-----------------|-----------------|------------------|
|-----------------|-----------------|------------------|
|-----------------|-----------------|------------------|
|
|                              >
|  E  E E E  E  E    E   E  E  Q.      +H.
|-----------------|--------14-13----|-(13)-------------|
|-----------------|-11--12----------|------------------|
|-----------10-11-|-----------------|------------------|
|---------8-------|-----------------|------------------|
|-------8---------|-----------------|------------------|
|--6--9-----------|-----------------|------------------|


            Q=125             H.Q.=110  Q=125       H.=H Q=11H=Q=120
                                                        5/8
  Gtr III
                              >
   E   E  E  E  E  E    E   E E +Q.     Q.      Q    E    E  E  E  E  E
|--------------------|----------------|----------------|-----9----------|
|-11--------11-12----|----------------|----------------|----------------|
|-----10-11-------10-|-11--10-8-(8)---|-------------11-|-------11-10--8-|
|--------------------|----------------|-9------11------|-11-------------|
|--------------------|----------------|----------------|----------------|
|--------------------|----------------|----------------|----------------|
|
| Gtr IV
|                                            >                     >
|  H.                   H.              E  E E +Q.        Q.      +Q
|--------------------|----------------|----------------|----------------|
|--------------------|----------------|----------------|----------------|
|--------------------|----------------|----------------|----------------|
|--------------------|----------------|------8-(8)-----|--8-------(8)---|
|--------------------|----------------|-6--9-----------|--9-------(9)---|
|--------------------|----------------|----------------|----------------|


  Q=125               H.=H   Q=1Q=125
 6/8
  Gtr III
   E  Q     E  E  E    Q.         E   E E
|-------------------|---------------------|
|-------------------|---------------------|
|-10-10----10-10-10-|-11---------11--10-8-|
|-------------------|---------------------|
|-------------------|---------------------|
|-------------------|---------------------|
|
| Gtr IV
|                                 >
|  E  E  E  E  E  E    E   E  E  +Q.
|-------------------|---------------------|
|-------11-------11-|--------11-(11)------|
|--8-11-----8-11----|--8--11--------------|
|-------------------|---------------------|
|-------------------|---------------------|
|-------------------|---------------------|


                    H.=H                     Q=100
   >
   H.                H.                 Q.    E  E  E
|-----------------|-----------------|--------14-13----|
|-----------------|-----------------|--------------12-|
|-10--------------|-----------------|-----------------|
|-----------------|-----------------|-----------------|
|--8--------------|-----------------|-----------------|
|-----------------|-----------------|-----------------|
|
|                              >
|  E  E E E  E  E    E   E  E  Q.      +H.
|-----------------|--------14-13----|-(13)------------|
|-----------------|-11--12----------|-----------------|
|-----------10-11-|-----------------|-----------------|
|---------8-------|-----------------|-----------------|
|-------8---------|-----------------|-----------------|
|--6--9-----------|-----------------|-----------------|


  Q=80H.=H  Q.=70    Q=120
  Gtr III
                      >
   E   E  E E E  E    H.         +H.
|---------------14-|-13-------|-(13)------|
|-11-----12-9-8----|----------|-----------|
|------------------|----------|-----------|
|-----13-----------|----------|-----------|
|------------------|----------|-----------|
|------------------|----------|-----------|
|
| Gtr IV
|  H.                 H.          H.
|------------------|----------|-----------|
|------------------|----------|-----------|
|------------------|----------|-----------|
|------------------|----------|-----------|
|------------------|----------|-----------|
|------------------|----------|-----------|


   +H.         +H.         +H.        H.
|-(13)------|-(13)------|-(13)------|-------|
|-----------|-----------|-----------|-------|
|-----------|-----------|-----------|-------|
|-----------|-----------|-----------|-------|
|-----------|-----------|-----------|-------|
|-----------|-----------|-----------|-------|
|
|   H.          H.          H.        H.
|-----------|-----------|-----------|-------|
|-----------|-----------|-----------|-------|
|-----------|-----------|-----------|-------|
|-----------|-----------|-----------|-------|
|-----------|-----------|-----------|-------|
|-----------|-----------|-----------|-------|


 Riff 1 (0:40)
  Q=145
 4/4
  Gtr I
   PM-----|    PM|             PM   PM  PM
   E  E E  E E E E   E      E  E E  E E E E  E
|-------------------[8]-|--[7]-----------------|
|-----------------------|----------------------|
|-----------------------|----------------------|
|-----------------------|--------8----7------5-|
|-10--9-7----7----------|------5----3---3-7----|
|--8--7-5--4---8-7------|----------------------|
|
| Gtr II
|  PM-----|    PM|             PM   PM  PM
|  E  E E  E E E E   E      E  E E  E E E E  E
|-------------------[8]-|--[7]-----------------|
|-----------------------|----------------------|
|-----------------------|----------------------|
|-----------------------|--------8----7------5-|
|-10--9-7----7----------|------5----3---3-7----|
|--8--7-5--4---8-7------|----------------------|
|
| Gtr V
|  Q.      H        +E     +E  Q    H        E
|---------13-------(13)-|-(13)--------------12-|
|---------13-------(13)-|-(13)-9---12----------|
|---------11-------(11)-|-(11)-----10----------|
|-----------------------|----------------------|


       PM|         PM  PM    PM         PM|
    E  E E  E   E  E E E   E E  S S E E E E  E
|------------------------|------------------[8]-|
|----------[7]-[6]-------|----------------------|
|------------------------|----------------------|
|--------------------7---|-6--------------------|
|---6--------------4---3-|------6h7---7---------|
|------7-6---------------|---7------4---8-7-----|
|
|      PM|         PM  PM    PM         PM|
|   E  E E  E   E  E E E   E E  S S E E E E  E
|------------------------|------------------[8]-|
|----------[7]-[6]-------|----------------------|
|------------------------|----------------------|
|--------------------7---|-6--------------------|
|---6--------------4---3-|------6h7---7---------|
|------7-6---------------|---7------4---8-7-----|
|
|  +E  E E  E  +Q.     E   E E  H.
|-(12)-------------------|-----13---------------|
|------------------------|-9S8-13---------------|
|-----------8--(8)-------|-----11---------------|
|------7-6-------------7-|----------------------|


  Gtr I
       PM  PM  PM             PM|         PM  PM
    E  E E E E E E  E     E   E E  E   E  E E E
|--[7]----------------|-------------------------|
|---------------------|-----------[7]-[6]-------|
|---------------------|-------------------------|
|--------8---7------5-|---------------------7---|
|------5---3---3-7----|---6---------------4---3-|
|---------------------|-------7-6---------------|
|
| Gtr II
|      PM  PM  PM   PM        PM|         PM  PM
|   E  E E E E E E  E     E   E E  E   E  E E E
|--[7]----------------|-------------------------|
|---------------------|-----------[7]-[6]-------|
|---------------------|-------------------------|
|--------8---7--------|---------------------7---|
|------5---3---6-7----|---6---------------4---3-|
|-------------------3-|-------7-6---------------|
|
| Gtr V
|  +E  Q   H        E    +E   Q    E  +H
|-(13)-7---5-------12-|-(12)--------------------|
|-(13)-4---5----------|-------9-----------------|
|-(11)----------------|------10----9--(9)-------|
|---------------------|-------------------------|


    PM          PM|             PM   PM  PM
  E E  S S  E E E E   E      E  E E  E E E E  E
|--------------------[8]-|--[7]------------------|
|------------------------|-----------------------|
|------------------------|-----------------------|
|-6----------------------|--------8----7------5--|
|---2--6h7----7----------|------5----3---3-7-----|
|-----------4---8-7------|-----------------------|
|
|   PM          PM|             PM   PM  PM
| E E  S S  E E E E   E      E  E E  E E E E  E
|--------------------[8]-|--[7]------------------|
|------------------------|-----------------------|
|------------------------|-----------------------|
|-6----------------------|--------8----7------5--|
|---2--6h7----7----------|------5----3---3-7-----|
|-----------4---8-7------|-----------------------|
|
| E E  S S  H        +E     +E  Q    H        E
|-----/8h9-13-------(13)-|-(13)--------------12--|
|-9S8------13-------(13)-|-(13)-9---12-----------|
|----------11-------(11)-|-(11)-----10-----------|
|------------------------|-----------------------|


  Gtr I
       PM|         PM  PM    PM         PM|
    E  E E  E   E  E E E   E E  S S E E E E  E
|------------------------|------------------[8]-|
|----------[7]-[6]-------|----------------------|
|------------------------|----------------------|
|--------------------7---|-6--------------------|
|---6--------------4---3-|---2--6h7---7---------|
|------7-6---------------|----------4---8-7-----|
|
| Gtr II
|      PM|         PM  PM    PM         PM|
|   E  E E  E   E  E E E   E E  S S E E E E  E
|------------------------|------------------[8]-|
|----------[7]-[6]-------|----------------------|
|------------------------|----------------------|
|--------------------7---|-6--------------------|
|---6--------------4---3-|---2--6h7---7---------|
|------7-6---------------|----------4---8-7-----|
|
| Gtr V
|  +E  E E  E  +Q.     E   E E  H.
|-(12)-------------------|-----13---------------|
|------------------------|-9S8-13---------------|
|-----------8--(8)-------|-----11---------------|
|------7-6-------------7-|----------------------|


       PM  PM  PM             PM|
    E  E E E E E E  E     E   E E  E   E  E E E
|--[7]----------------|--------------------------|
|---------------------|-----------[7]-[6]--------|
|---------------------|--------------------------|
|--------8---7------5-|---------------------7----|
|------5---3---3-7----|---6---------------4---3--|
|---------------------|-------7-6----------------|
|
|      PM  PM  PM             PM|
|   E  E E E E E E  E     E   E E  E   E  E E E
|--[7]----------------|--------------------------|
|---------------------|-----------[7]-[6]--------|
|---------------------|---------------------8----|
|--------8---7------5-|--------------------------|
|------5---3---3-7----|---6---------------4---3--|
|---------------------|-------7-6----------------|
|
|  +E  Q   H        E    +E   Q    E  +H
|-(13)-7---5-------12-|-(12)---------------------|
|-(13)-4---5----------|-------9------------------|
|-(11)----------------|------10----9--(9)--------|
|---------------------|--------------------------|


 Riff 2 (1:00)
  Gtr I
  PM--|      ~~~~               ~  PM----------------------|     PM
  e e e E E  Q    E   E E E E E Q  S S   S S S S S S S S S S E E E
|-------------------|------------------|---------------------------|
|-------------------|------------------|---------------------------|
|-------------------|------------------|---------------------------|
|-4-3---------------|---7S8-8S7----2-2-|-2-2-5-5-5-5-5-2-2-2-------|
|-2-1-4-3S4-[2]---3S|=4---------1------|---------------------5S6-5-|
|-----2-1S2-------1S|=2-5S6-6S5--------|---------------------3S4-3-|
|
| Gtr II
| PM--|                         ~  PM----------------------|     PM
| e e e E E  E  E E   E E E E E Q  S S   S S S S S S S S S S E E E
|-------------------|------------------|---------------------------|
|-------------------|------------------|---------------------------|
|-------------------|------------------|---------------------------|
|-4-3--------4S=5---|------------------|---------------------------|
|-2-1-4-3S4-[2]S3-3S|=4-7S8-8S7-4--0-0-|-0-0-3-3-3-3-3-0-0-0-5S6-5-|
|-----2-1S2-------1S|=2-5S6-6S5--------|---------------------3S4-3-|


    Gtr I
    PM--|      ~~~               ~  PM----------------------|     PM
    E E E E E  Q   E   E E E E E Q  S S   S S S S S S S S S S E E E  3x
||-------------------|------------------|----------------------------||
||o------------------|------------------|---------------------------o||
||-------------------|------------------|----------------------------||
||-------------------|---7S8-8S7----2-2-|-2-2-5-5-5-5-5-2-2-2--------||
||o-4-5-4-3S4-[2]--3S|=4---------1------|---------------------5S6-5-o||
||--2-3-2-1S2------1S|=2-5S6-6S5--------|---------------------3S4-3--||
|
|   Gtr II
|   PM--|                        ~  PM----------------------|     PM
|   E E E E E  E E E   E E E E E Q  S S   S S S S S S S S S S E E E  3x
||-------------------|------------------|----------------------------||
||o------------------|------------------|---------------------------o||
||-------------------|------------------|----------------------------||
||-------------4S5---|------------------|----------------------------||
||o-4-5-4-3S4--2S3-3S|=4-7S8-8S7-4--0-0-|-0-0-3-3-3-3-3-0-0-0-5S6-5-o||
||--2-3-2-1S2------1S|=2-5S6-6S5--------|---------------------3S4-3--||


 Riff 1a  (1:21)
  Gtr I
  PM----|    PM|             PM   PM  PM            PM|         PM  PM
  E E E  E E E E   E      E  E E  E E E E  E     E  E E  E   E  E E E
|-----------------[8]-|--[7]-----------------|------------------------|
|---------------------|----------------------|----------[7]-[6]-------|
|---------------------|----------------------|------------------------|
|---------------------|--------8----7------5-|--------------------7---|
|-4-5-4----7----------|------5----3---3-7----|---6--------------4---3-|
|-2-3-2--4---8-7------|----------------------|------7-6---------------|
|
| Gtr II
| PM----|    PM|             PM   PM  PM            PM|         PM  PM
| E E E  E E E E   E      E  E E  E E E E  E     E  E E  E   E  E E E
|-----------------[8]-|--[7]-----------------|------------------------|
|---------------------|----------------------|----------[7]-[6]-------|
|---------------------|----------------------|------------------------|
|---------------------|--------8----7------5-|--------------------7---|
|-4-5-4----7----------|------5----3---3-7----|---6--------------4---3-|
|-2-3-2--4---8-7------|----------------------|------7-6---------------|
|
| Gtr V
| E E E  H        +E     +E  Q    H        E    +E  E E  E  +Q.     E
|-------13-------(13)-|-(13)--------------12-|-(12)-------------------|
|-------13-------(13)-|-(13)-9---12----------|------------------------|
|-------11-------(11)-|-(11)-----10----------|-----------8--(8)-------|
|-2-3-2---------------|----------------------|------7-6-------------7-|


  Gtr I
    PM         PM|            PM  PM  PM             PM|
  E E  S S E E E E  E      E  E E E E E E  E     E   E E  E   E  E E E
|------------------[8]-|--[7]----------------|--------------------------|
|----------------------|---------------------|-----------[7]-[6]--------|
|----------------------|---------------------|--------------------------|
|-6--------------------|--------8---7------5-|---------------------7----|
|---2--6h7---7---------|------5---3---3-7----|---6---------------4---3--|
|----------4---8-7-----|---------------------|-------7-6----------------|
|
| Gtr II
|   PM         PM|            PM  PM  PM   PM        PM|
| E E  S S E E E E  E      E  E E E E E E  E     E   E E  E   E  E E E
|------------------[8]-|--[7]----------------|--------------------------|
|----------------------|---------------------|-----------[7]-[6]--------|
|----------------------|---------------------|---------------------8----|
|-6--------------------|--------8---7--------|--------------------------|
|---2--6h7---7---------|------5---3---6-7----|---6---------------4---3--|
|----------4---8-7-----|-------------------3-|-------7-6----------------|
|
| Gtr V
| E E  H.                 +E  Q   H        E    +E   Q    E  +H
|-----13---------------|-(13)-7---5-------12-|-(12)---------------------|
|-9S8-13---------------|-(13)-4---5----------|-------9------------------|
|-----11---------------|-(11)----------------|------10----9--(9)--------|
|----------------------|---------------------|--------------------------|


 Riff 2 (1:31)
  Gtr I
  PM--|      ~~~~               ~  PM----------------------|     PM
  e e e E E  Q    E   E E E E E Q  S S   S S S S S S S S S S E E E
|-------------------|------------------|---------------------------|
|-------------------|------------------|---------------------------|
|-------------------|------------------|---------------------------|
|-4-3---------------|---7S8-8S7----2-2-|-2-2-5-5-5-5-5-2-2-2-------|
|-2-1-4-3S4-[2]---3S|=4---------1------|---------------------5S6-5-|
|-----2-1S2-------1S|=2-5S6-6S5--------|---------------------3S4-3-|
|
| Gtr II
| PM--|                         ~  PM----------------------|     PM
| e e e E E  E  E E   E E E E E Q  S S   S S S S S S S S S S E E E
|-------------------|------------------|---------------------------|
|-------------------|------------------|---------------------------|
|-------------------|------------------|---------------------------|
|-4-3--------4S=5---|------------------|---------------------------|
|-2-1-4-3S4-[2]S3-3S|=4-7S8-8S7-4--0-0-|-0-0-3-3-3-3-3-0-0-0-5S6-5-|
|-----2-1S2-------1S|=2-5S6-6S5--------|---------------------3S4-3-|


                                                                       3/8
    Gtr I
    PM--|      ~~~               ~  PM----------------------|     PM--------|
    E E E E E  Q   E   E E E E E Q  S S   S S S S S S S S S S E E E  3x E E E
||-------------------|------------------|----------------------------||--------|
||o------------------|------------------|---------------------------o||--------|
||-------------------|------------------|----------------------------||--------|
||-------------------|---7S8-8S7----2-2-|-2-2-5-5-5-5-5-2-2-2--------||--------|
||o-4-5-4-3S4-[2]--3S|=4---------1------|---------------------5S6-5-o||-4-5-4--|
||--2-3-2-1S2------1S|=2-5S6-6S5--------|---------------------3S4-3--||-2-3-2--|
|
|   Gtr II
|   PM--|                        ~  PM----------------------|     PM--------|
|   E E E E E  E E E   E E E E E Q  S S   S S S S S S S S S S E E E  3x E E E
||-------------------|------------------|----------------------------||--------|
||o------------------|------------------|---------------------------o||--------|
||-------------------|------------------|----------------------------||--------|
||-------------4S5---|------------------|----------------------------||--------|
||o-4-5-4-3S4--2S3-3S|=4-7S8-8S7-4--0-0-|-0-0-3-3-3-3-3-0-0-0-5S6-5-o||-4-5-4--|
||--2-3-2-1S2------1S|=2-5S6-6S5--------|---------------------3S4-3--||-2-3-2--|


   Riff 3 (1:52)
    Q=240
   4/4
    Gtr I
    PM-----------------------------------------------------
    E E E E E E S S S S   S S S S S S S S S S S S S S S S
||----------------------|---------------------------------|
||o---------------------|---------------------------------|
||----------------------|---------------------------------|
||----------------------|---------------------------------|
||o---------------------|---------------------------------|
||--0-0-2-0-1-0-1-1-1-1-|-3-3-3-3-4-4-4-4-1-1-1-1-2-2-2-2-|
|
|   Gtr II
|   PM-----------------------------------------------------
|   E E E E E E S S S S   S S S S S S S S S S S S S S S S
||----------------------|---------------------------------|
||o---------------------|---------------------------------|
||----------------------|---------------------------------|
||----------------------|---------------------------------|
||o---------------------|---------------------------------|
||--0-0-2-0-1-0-1-1-1-1-|-3-3-3-3-4-4-4-4-1-1-1-1-2-2-2-2-|


 -------------------|
  S S S S E E E E E E   6x
|-----------------------||
|----------------------o||
|-----------------------||
|-----------------------||
|---------2-3-2-0-2----o||
|-0-0-0-0-----------4---||
|
|-------------------|
| S S S S E E E E E E   6x
|-----------------------||
|----------------------o||
|-----------------------||
|-----------------------||
|---------6-7-6-4-6----o||
|-0-0-0-0-----------7---||


 3/4
  Gtr I
  PM----------------------------------------------------------------|
  E E E E E E   E E E E E E   E E E E E E   E E E E E E   E E E E E E
|-------------|-------------|-------------|-------------|-------------|
|-------------|-------------|-------------|-------------|-------------|
|-------------|-------------|-------------|-------------|-------------|
|-------------|-------------|-------------|-------------|-------------|
|-2-3-2-0-2---|-1-2-1---1---|-1-2-1---1---|-2-3-2-0-2---|-2-3-2-0-2---|
|-----------4-|-------4---3-|-------4---3-|-----------4-|-----------4-|
|
| Gtr II
| PM----------------------------------------------------------------|
| E E E E E E   E E E E E E   E E E E E E   E E E E E E   E E E E E E
|-------------|-------------|-------------|-------------|-------------|
|-------------|-------------|-------------|-------------|-------------|
|-------------|-------------|-------------|-------------|-------------|
|-------------|-------------|-------------|-------------|-------------|
|-6-7-6-4-6---|-5-6-5-3-5---|-5-6-5-3-5---|-6-7-6-4-6---|-6-7-6-4-6---|
|-----------7-|-----------6-|-----------6-|-----------7-|-----------7-|


 Riff 4 (2:14)
  Q=230
 4/4
  Gtr I
  S S S S S S S S S S S S  Q          S S S S S S S S S S S S S S S S
|-----------------------------------|----------------------------------|
|-----------------------------------|----------------------------------|
|-----------------------------------|----------------------------------|
|-----------------------------------|----------------------------------|
|-----------------5-5-5-5-[4]-------|----------------------------------|
|-3-3-3-3-4-4-4-4-------------------|-7-7-7-7-6-6-6-6-4-4-4-4-6-6-6-6--|
|
| Gtr II
| S S S S S S S S S S S S  S  S S S   S S S S S S S S S S S S S S S S
|-----------------------------------|----------------------------------|
|-----------------------------------|----------------------------------|
|-----------------------------------|----------------------------------|
|-----------------------------------|----------------------------------|
|-----------------5-5-5-5--4--4-4-4-|----------------------------------|
|-3-3-3-3-4-4-4-4-------------------|-7-7-7-7-6-6-6-6-4-4-4-4-6-6-6-6--|


  Gtr I
                  PM--|
  S S S S S S S S E E Q      Q        S S S S E E S S S S
|-------------------------|--------------------------------|
|-------------------------|--------------------------------|
|-------------------------|--------------------------------|
|-------------------------|--------------------------------|
|-----------------4-4-3---|-[7]----------------------------|
|-3-3-3-3-4-4-4-4-4-4-3---|-----------6-6-6-6-3h6-5-5-5-5--|
|
| Gtr II
|                 PM----|
| S S S S S S S S E E E E    S  S S S S S S S E E S S S S
|-------------------------|--------------------------------|
|-------------------------|--------------------------------|
|-------------------------|--------------------------------|
|-------------------------|--------------------------------|
|-------------------4---3-|--------------------------------|
|-3-3-3-3-4-4-4-4-2---2---|--5--5-5-5-6-6-6-6-3h6-5-5-5-5--|


  Gtr I
          PM------------------------|
  S S S S Q  Q  E E   E E E E E E E E
|-------------------|-----------------|
|-------------------|-----------------|
|-------------------|-----------------|
|-------------------|-----------------|
|---------5--4------|-----3-3---4---3-|
|-6-6-6-6-3--2--3-6-|-2-5-1-1-1---1---|
|
| Gtr II
|         PM------------------------|
| S S S S Q  Q  E E   E E E E E E E E
|-------------------|-----------------|
|-------------------|-----------------|
|-------------------|-----------------|
|-------------------|-----------------|
|---------5--4------|-----3-3---4---3-|
|-6-6-6-6-3--2--3-6-|-2-5-1-1-1---1---|


  Gtr I
  S S S S S S S S S S S S  Q          S S S S S S S S S S S S S S S S
|-----------------------------------|---------------------------------|
|-----------------------------------|---------------------------------|
|-----------------------------------|---------------------------------|
|-----------------------------------|---------------------------------|
|-----------------5-5-5-5-[4]-------|---------------------------------|
|-3-3-3-3-4-4-4-4-------------------|-7-7-7-7-6-6-6-6-4-4-4-4-6-6-6-6-|
|
| Gtr II
| S S S S S S S S S S S S  S  S S S   S S S S S S S S S S S S S S S S
|-----------------------------------|---------------------------------|
|-----------------------------------|---------------------------------|
|-----------------------------------|---------------------------------|
|-----------------------------------|-4-4-4-4-3-3-3-3---------3-3-3-3-|
|-----------------5-5-5-5--4--4-4-4-|---------------------------------|
|-3-3-3-3-4-4-4-4-------------------|-----------------4-4-4-4---------|


  Gtr I
                  PM--|
  S S S S S S S S E E Q      Q        S S S S E E S S S S
|-------------------------|--------------------------------|
|-------------------------|--------------------------------|
|-------------------------|--------------------------------|
|-------------------------|--------------------------------|
|-----------------4-4-3---|-[7]----------------------------|
|-3-3-3-3-4-4-4-4-4-4-3---|-----------6-6-6-6-3h6-5-5-5-5--|
|
| Gtr II
|                 PM----|
| S S S S S S S S E E E E    S  S S S S S S S E E S S S S
|-------------------------|--------------------------------|
|-------------------------|--------------------------------|
|-------------------------|--------------------------------|
|-------------------------|--------------------------------|
|-------------------4---3-|--------------------------------|
|-3-3-3-3-4-4-4-4-2---2---|--5--5-5-5-6-6-6-6-3h6-5-5-5-5--|


  Gtr I
          PM------------------------|
  S S S S Q  Q  E E   E E E E E E E E
|-------------------|-----------------|
|-------------------|-----------------|
|-------------------|-----------------|
|-------------------|-----------------|
|---------5--4------|-----3-3---4---3-|
|-6-6-6-6-3--2--3-6-|-2-5-1-1-1---1---|
|
| Gtr II
|         PM------------------------|
| S S S S Q  Q  E E   E E E E E E E E
|-------------------|-----------------|
|-------------------|-----------------|
|-------------------|-----------------|
|-------------------|-----------------|
|---------5--4------|-----3-3---4---3-|
|-6-6-6-6-3--2--3-6-|-2-5-1-1-1---1---|


 Riff 5 (2:26)
  Q=240
 3/4
  Gtr I
  PM---------------------------------------
  E E E E E E   E E E E E E   E E E E E E
|-------------|-------------|-------------|
|-------------|-------------|-------------|
|-------------|-------------|-------------|
|-------------|-------------|-------------|
|-2-3-2-0-2---|-1-2-1---1---|-1-2-1---1---|
|-----------4-|-------4---3-|-------4---3-|
|
| Gtr II
| PM---------------------------------------
| E E E E E E   E E E E E E   E E E E E E
|-------------|-------------|-------------|
|-------------|-------------|-------------|
|-------------|-------------|-------------|
|-------------|-------------|-------------|
|-6-7-6-4-6---|-5-6-5-3-5---|-5-6-5-3-5---|
|-----------7-|-----------6-|-----------6-|


 ---------------------------------------|
  E E E E E E   E E E E E E   E E E E E E
|-------------|-------------|---------------|
|-------------|-------------|---------------|
|-------------|-------------|---------------|
|-------------|-------------|---------------|
|-1-2-1---1---|-2-3-2-0-2---|-1-2-1---1-----|
|-------4---3-|-----------4-|-------4---3---|
|
|---------------------------------------|
| E E E E E E   E E E E E E   E E E E E E
|-------------|-------------|---------------|
|-------------|-------------|---------------|
|-------------|-------------|---------------|
|-------------|-------------|---------------|
|-5-6-5-3-5---|-6-7-6-4-6---|-5-6-5-3-5-----|
|-----------6-|-----------7-|-----------6---|


  Q=230
 4/4
  Gtr I
  PM             PM----------------------------|
  Q  H.          q  q  E E E E   E E E E E E E E
|--------------|---------------|-----------------|
|--------------|---------------|-----------------|
|--------------|---------------|-----------------|
|--------------|---------------|-----------------|
|-3------------|-4--3--2-3-2-0-|-2---2-3-2-0-2-2-|
|-1------------|-2--1----------|---4-------------|
|
| Gtr II
| PM             PM----------------------------|
| Q  H.          q  q  E E E E   E E E E E E E E
|--------------|---------------|-----------------|
|--------------|---------------|-----------------|
|--------------|---------------|-----------------|
|--------------|---------------|---------4-2-4---|
|-3------------|-4--3--2-3-2-0-|-2---2-3-------2-|
|-1------------|-2--1----------|---4-------------|
|
| Gtr V
| Q  Q   Q  Q    q  q  H         W
|--------------|---------------|-----------------|
|-----------3--|---------------|-----------------|
|----2---3-----|---------------|-----------------|
|-1------------|-2--1----------|-----------------|


    Gtr I
                              PM----------------------|
    E E E E E E E E   E E E E E E E E   E E E E E E E E
||------------------|-----------------|-----------------|
||o-----------5-4---|---5-4-----------|-----------------|
||------3-4-3-----4-|-5-----5---------|-----------------|
||--3-4-------------|-----------------|-----4-5---------|
||o-----------------|---------2-3-2-0-|-2-------3-6-2-5-|
||------------------|-----------------|---4-------------|
|
|   Gtr II
|                             PM----------------------|
|   E E E E E E E E   E E E E E E E E   E E E E E E E E
||------------------|-----------------|-----------------|
||o-----------------|-----------------|-----------------|
||------------2-1---|-----------------|-----------------|
||------1-2-1-----2-|---2-1-----------|-----4-5---------|
||o-1-2-------------|-3-----3-2-3-2-0-|-2-------3-6-2-5-|
||------------------|-----------------|---4-------------|


  1.
 4/4
  Gtr I
  PM           PM----------------------------|
  Q  H.        q  q  E E E E   E E E E E E E E
|------------|---------------|------------------||
|------------|---------------|-----------------o||
|------------|---------------|------------------||
|------------|---------------|------------------||
|-3----------|-4--3--2-3-2-0-|-2---2-3-2-0-2-2-o||
|-1----------|-2--1----------|---4--------------||
|
| Gtr II
| PM           PM----------------------------|
| Q  H.        q  q  E E E E   E E E E E E E E
|------------|---------------|------------------||
|------------|---------------|-----------------o||
|------------|---------------|------------------||
|------------|---------------|---------4-2-4----||
|-3----------|-4--3--2-3-2-0-|-2---2-3-------2-o||
|-1----------|-2--1----------|---4--------------||


  2.
  PM        ~~~   PM----------------------------|
  Q  Q  Q   Q     q  q  E E E E   E E E E E E E E
|---------------|---------------|-----------------|
|---------------|---------------|-----------------|
|---------------|---------------|-----------------|
|----------[3]--|---------------|-----------------|
|-3--2--3-------|-4--3--2-3-2-0-|-2---2-3-2-0-2-2-|
|-1-------------|-2--1----------|---4-------------|
|
| PM        ~~~   PM----------------------------|
| Q  Q  Q   Q     q  q  E E E E   E E E E E E E E
|---------------|---------------|-----------------|
|---------------|---------------|-----------------|
|-----------5---|---------------|-----------------|
|----4--5-------|---------------|---------4-2-4---|
|-3-------------|-4--3--2-3-2-0-|-2---2-3-------2-|
|-1-------------|-2--1----------|---4-------------|


  Gtr I
                            PM----------------------|
  E E E E E E E E   E E E E E E E E   E E E E E E E E
|-----------------|-----------------|-----------------|
|-----------5-4---|---5-4-----------|-----------------|
|-----3-4-3-----4-|-5-----5---------|-----------------|
|-3-4-------------|-----------------|-----4-5---------|
|-----------------|---------2-3-2-0-|-2-------3-6-2-5-|
|-----------------|-----------------|---4-------------|
|
| Gtr II
|                           PM----------------------|
| E E E E E E E E   E E E E E E E E   E E E E E E E E
|-----------------|-----------------|-----------------|
|-----------------|-----------------|-----------------|
|-----------2-1---|-----------------|-----------------|
|-----1-2-1-----2-|---2-1-----------|-----4-5---------|
|-1-2-------------|-3-----3-2-3-2-0-|-2-------3-6-2-5-|
|-----------------|-----------------|---4-------------|


 3/4
  Gtr I
  PM            PM-|
  Q  H       Q  q  q
|----------|----------|
|----------|----------|
|----------|----------|
|----------|----------|
|-3--------|----4--3--|
|-1--------|----2--1--|
|
| Gtr II
| PM            PM-|
| Q  H       Q  q  q
|----------|----------|
|----------|----------|
|----------|----------|
|----------|----------|
|-3--------|----4--3--|
|-1--------|----2--1--|
|
| Gtr V
| Q  Q  Q    Q  q  q
|----------|----------|
|----------|-3--------|
|----2--3--|----------|
|-1--------|----2--1--|


 Riff 6 (3:00)
  Q=200
 4/4
  Gtr I
                                        PM-|
  Q  Q    Q   Q     Q  Q  Q  Q    Q  Q  q  q
|-----------------|-------------|-------------|
|-----------------|-------------|-------------|
|-----------------|-------------|-------------|
|-----------------|-------------|-------------|
|---------5---4---|-2--1-----1--|-------4--3--|
|-2--3------------|-------3-----|-2--3--2--1--|
|
| Gtr II
|             ~~~                       PM-|
| Q  Q  a Q   Q     Q  Q  Q  Q    Q  Q  q  q
|-----------------|-------------|-------------|
|-----------------|-------------|-------------|
|-----------------|-------------|-------------|
|-------4S7--[6]--|----------3--|-------------|
|-4--5------------|-9--8--5-----|-4--5--4--3--|
|-----------------|-------------|-------2--1--|


  Gtr I
                                      ~~~ PM-|
  Q  Q    Q   Q     Q  Q  Q  Q    Q   Q   q  q
|-----------------|-------------|----------------|
|-----------------|-------------|----------------|
|-----------------|-------------|----------------|
|-----------------|-------------|----------------|
|---------5---4---|-2--1-----1--|---------4--3---|
|-2--3------------|-------3-----|-2--[3]--2--1---|
|
| Gtr II
|             ~~~                     ~~~ PM-|
| Q  Q  a Q   Q     Q  Q  Q  Q    Q   Q   q  q
|-----------------|-------------|----------------|
|-----------------|-------------|----------------|
|-----------------|-------------|----------------|
|-------4S7--[6]--|----------3--|----------------|
|-4--5------------|-9--8--5-----|-4--[5]--4--3---|
|-----------------|-------------|---------2--1---|


 3/4
  Gtr I
  PM---------------|
  q  q  q    q  q  q
|----------|----------|
|----------|----------|
|----------|----------|
|----------|----------|
|-4--5--4--|-3--4--3--|
|-2--3--2--|-1--2--1--|
|
| Gtr II
| PM---------------|
| q  q  q    q  q  q
|----------|----------|
|----------|----------|
|----------|----------|
|----------|----------|
|-4--5--4--|-3--4--3--|
|-2--3--2--|-1--2--1--|


   Riff 7 (3:10)
   4/4
    Gtr I
       ~~             ~~                  PM-|
    Q  H.          Q  H.          Q   Q   q  q
||---------------|--------------|---------------|
||o--------------|--------------|---------------|
||---------------|--------------|---------------|
||---------------|--------------|---------------|
||o--------------|--------------|---------4--3--|
||--2--3---------|-7--6---------|-2--[3]--2--1--|
|
|   Gtr II
|      ~~             ~~                  PM-|
|   Q  H.          Q  H.          Q   Q   q  q
||---------------|--------------|---------------|
||o--------------|--------------|---------------|
||---------------|--------------|---------------|
||---------------|--------------|---------------|
||o-1--2---------|-5--4---------|-1--[2]--4--3--|
||---------------|--------------|---------2--1--|
|
|   Gtr V
|   Q  Q   Q  Q    Q  Q   Q  Q    Q   Q   q  q
||---------------|--------------|---------------|
||o--------------|--------------|---------------|
||o--------5--4--|-2--1------1--|---------------|
||--2--3---------|--------3-----|-2---3---2--1--|


  Gtr I
                                      ~~~ PM-|
  Q  Q    Q   Q     Q  Q  Q  Q    Q   Q   q  q
|-----------------|-------------|-----------------||
|-----------------|-------------|----------------o||
|-----------------|-------------|-----------------||
|-----------------|-------------|-----------------||
|---------5---4---|-2--1-----1--|---------4--3---o||
|-2--3------------|-------3-----|-2--[3]--2--1----||
|
| Gtr II
|             ~~~                     ~~~ PM-|
| Q  Q  a Q   Q     Q  Q  Q  Q    Q   Q   q  q
|-----------------|-------------|-----------------||
|-----------------|-------------|----------------o||
|-----------------|-------------|-----------------||
|-------4S7--[6]--|----------3--|-----------------||
|-4--5------------|-9--8--5-----|-4--[5]--4--3---o||
|-----------------|-------------|---------2--1----||
|
| Gtr V
| Q  Q    Q   Q     Q  Q  Q  Q    Q   Q   q  q
|-----------------|-------------|-----------------||
|-----------------|-------------|----------------o||
|---------5---4---|-2--1-----1--|----------------o||
|-2--3------------|-------3-----|-2---3---2--1----||


 3/4
  Gtr I
  PM---------------|
  q  q  q    q  q  q
|----------|----------|
|----------|----------|
|----------|----------|
|----------|----------|
|-4--5--4--|-3--4--3--|
|-2--3--2--|-1--2--1--|
|
| Gtr II
| PM---------------|
| q  q  q    q  q  q
|----------|----------|
|----------|----------|
|----------|----------|
|----------|----------|
|-4--5--4--|-3--4--3--|
|-2--3--2--|-1--2--1--|


   Riff 3 (3:26)
    Q=220
   4/4
    Gtr I
    PM-----------------------------------------------------
    E E E E E E S S S S   S S S S S S S S S S S S S S S S
||----------------------|---------------------------------|
||o---------------------|---------------------------------|
||----------------------|---------------------------------|
||----------------------|---------------------------------|
||o---------------------|---------------------------------|
||--0-0-2-0-1-0-1-1-1-1-|-3-3-3-3-4-4-4-4-1-1-1-1-2-2-2-2-|
|
|   Gtr II
|   PM-----------------------------------------------------
|   E E E E E E S S S S   S S S S S S S S S S S S S S S S
||----------------------|---------------------------------|
||o---------------------|---------------------------------|
||----------------------|---------------------------------|
||----------------------|---------------------------------|
||o---------------------|---------------------------------|
||--0-0-2-0-1-0-1-1-1-1-|-3-3-3-3-4-4-4-4-1-1-1-1-2-2-2-2-|


 -------------------|
  S S S S E E E E E E   4x
|-----------------------||
|----------------------o||
|-----------------------||
|-----------------------||
|---------2-3-2-0-2----o||
|-0-0-0-0-----------4---||
|
|-------------------|
| S S S S E E E E E E   4x
|-----------------------||
|----------------------o||
|-----------------------||
|-----------------------||
|---------6-7-6-4-6----o||
|-0-0-0-0-----------7---||


 Riff 4a (3:39)
  Gtr I
  S S S S S S S S S S S S  S  S S S   S S S S S S S S S S S S S S S S
|-----------------------------------|---------------------------------|
|-----------------------------------|---------------------------------|
|-----------------------------------|---------------------------------|
|-----------------------------------|---------------------------------|
|-----------------5-5-5-5--4--4-4-4-|---------------------------------|
|-2-2-2-2-3-3-3-3-------------------|-7-7-7-7-6-6-6-6-4-4-4-4-6-6-6-6-|
|
| Gtr II
|                          ~~~
| S S S S S S S S S S S S  Q          S S S S S S S S S S S S S S S S
|-----------------------------------|---------------------------------|
|-----------------------------------|---------------------------------|
|-----------------------------------|---------------------------------|
|-----------------------------------|---------------------------------|
|-----------------5-5-5-5-[4]-------|---------------------------------|
|-2-2-2-2-3-3-3-3-------------------|-7-7-7-7-6-6-6-6-4-4-4-4-6-6-6-6-|


  Gtr I
                  PM----|    ~~~
  S S S S S S S S E E E E    Q   S S S S S S S S S S S S
|-------------------------|-------------------------------|
|-------------------------|-------------------------------|
|-------------------------|-------------------------------|
|-------------------------|-[3]---------------------------|
|-------------------4---3-|-------------------------------|
|-3-3-3-3-4-4-4-4-2---2---|------3-3-3-3-6-6-6-6-5-5-5-5--|
|
| Gtr II
|                 PM----|    ~~~
| S S S S S S S S E E E E    Q   S S S S S S S S S S S S
|-------------------------|-------------------------------|
|-------------------------|-------------------------------|
|-------------------------|-------------------------------|
|-------------------------|-[3]---------------------------|
|-------------------4---3-|-------------------------------|
|-3-3-3-3-4-4-4-4-2---2---|------3-3-3-3-6-6-6-6-5-5-5-5--|


  Gtr I
  PM------------------------------|
  q  q  S S E E E   E E E E E E E E
|-----------------|-----------------|
|-----------------|-----------------|
|-----------------|-----------------|
|-----------------|-----------------|
|-8--5----------1-|-3---------4---3-|
|-6--3--2-2-2-2---|---3-1-1-1---1---|
|
| PM------------------------------|
| q  q  S S E E E   E E E E E E E E
|-----------------|-----------------|
|-----------------|-----------------|
|-----------------|-----------------|
|-----------------|-----------------|
|-8--5----------1-|-3---------4---3-|
|-6--3--2-2-2-2---|---3-1-1-1---1---|


  Gtr I
  S S S S S S S S S S S S  S  S S S   S S S S S S S S S S S S S S S S
|-----------------------------------|---------------------------------|
|-----------------------------------|---------------------------------|
|-----------------------------------|---------------------------------|
|-----------------------------------|---------------------------------|
|-----------------5-5-5-5--4--4-4-4-|---------------------------------|
|-2-2-2-2-3-3-3-3-------------------|-7-7-7-7-6-6-6-6-4-4-4-4-6-6-6-6-|
|
| Gtr II
| S S S S S S S S S S S S  Q          S S S S S S S S S S S S S S S S
|-----------------------------------|---------------------------------|
|-----------------------------------|---------------------------------|
|-----------------------------------|---------------------------------|
|-----------------------------------|-4-4-4-4-3-3-3-3---------3-3-3-3-|
|-----------------5-5-5-5-[4]-------|-----------------5-5-5-5---------|
|-2-2-2-2-3-3-3-3-------------------|---------------------------------|


  Gtr I
                  PM----|    ~~~
  S S S S S S S S E E E E    Q   S S S S S S S S S S S S
|-------------------------|-------------------------------|
|-------------------------|-------------------------------|
|-------------------------|-------------------------------|
|-------------------------|-[3]---------------------------|
|-------------------4---3-|-------------------------------|
|-3-3-3-3-4-4-4-4-2---2---|------3-3-3-3-6-6-6-6-5-5-5-5--|
|
| Gtr II
|                 PM----|    ~~~
| S S S S S S S S E E E E    Q   S S S S S S S S S S S S
|-------------------------|-------------------------------|
|-------------------------|-------------------------------|
|-------------------------|-------------------------------|
|-------------------------|-[3]---------------------------|
|-------------------4---3-|-------------------------------|
|-3-3-3-3-4-4-4-4-2---2---|------3-3-3-3-6-6-6-6-5-5-5-5--|


  Gtr I
  PM------------------------------|
  q  q  S S E E E   E E E E E E E E
|-----------------|-----------------|
|-----------------|-----------------|
|-----------------|-----------------|
|-----------------|-----------------|
|-8--5----------1-|-3---------4---3-|
|-6--3--2-2-2-2---|---3-1-1-1---1---|
|
| PM------------------------------|
| q  q  S S E E E   E E E E E E E E
|-----------------|-----------------|
|-----------------|-----------------|
|-----------------|-----------------|
|-----------------|-----------------|
|-8--5----------1-|-3---------4---3-|
|-6--3--2-2-2-2---|---3-1-1-1---1---|


 Interlude (3:51)
  Q=150
 6/8
  Gtrs I & II
                        \1.5__________________
   H.                  +H.
|--------------------|-----------------------|
|--------------------|-----------------------|
|--------------------|-----------------------|
|--------------------|-----------------------|
|--2-----------------|-(2)-------------------|
|--0-----------------|-(0)-------------------|
|
| Gtr III
|  E   E  E  E  E  E    E      E  E  E  E  E
|--------------14-13-|-14--------------------|
|-----12-------------|--------14----13----12-|
|-13-----13-12-------|-----------13----12----|
|--------------------|-----------------------|
|--------------------|-----------------------|
|--------------------|-----------------------|


   >
                                  PM---|
  +H.                  +Q.        E  E  E
|--------------------|--------------------|
|--------------------|--------------------|
|--------------------|--------------------|
|--------------------|--------------------|
|-(2)----------------|-(2)-------10--9--7-|
|-(0)----------------|-(0)--------8--7--5-|
|
|  E   E  E  E  E  E    E   E  E  E  E  E
|--------------13-12-|--------------------|
|-----11-------------|-11--13----12----11-|
|-12-----12-11-------|--------12----11----|
|--------------------|--------------------|
|--------------------|--------------------|
|--------------------|--------------------|


 Riff 1a (3:56)
 4/4
  Gtr I
   PM  PM|          PM     PM  PM          PM|           PM  PM  PM
   E E E E   E   E  E E    E E E E  E   E  E E    E   E  E E E E E  S S
|-----------[8]-[7]-----|----------------------|------------------------|
|-----------------------|----------------------|-[7]-[6]----------------|
|-----------------------|----------------------|------------------------|
|---------------------8-|----7------5----------|-----------7---6--------|
|----7--------------5---|--3---3-7------6------|---------4---3---2--6h7-|
|--4---8-7--------------|------------------7-6-|------------------------|
|
| Gtr II
|  PM  PM|          PM     PM  PM          PM|           PM  PM  PM
|  E E E E   E   E  E E    E E E E  E   E  E E    E   E  E E E E E  S S
|-----------[8]-[7]-----|----------------------|------------------------|
|-----------------------|----------------------|-[7]-[6]----------------|
|-----------------------|----------------------|------------------------|
|---------------------8-|----7------5----------|-----------7---6--------|
|----7--------------5---|--3---3-7------6------|---------4---3---2--6h7-|
|--4---8-7--------------|------------------7-6-|------------------------|
|
| Gtr V
|  H        +E   E  Q      H        E  +E  E E    E  +Q.     E E E  E
|-13-------(13)---------|----------12-(12)-----|-------------------13---|
|-13-------(13)-----9---|-12-------------------|---------------9S8-13---|
|-11-------(11)---------|-10-------------------|--8--(8)-----------11---|
|-----------------------|------------------7-6-|-------------7----------|


  Gtr I
         PM|          PM    PM  PM        PM|           PM  PM  PM
    E  E E E   E   E  E E   E E E E  E E  E E    E   E  E E E E E  S S
|-------------[8]-[7]-----|-------------------|-------------------------|
|-------------------------|-------------------|-[7]-[6]-----------------|
|-------------------------|-------------------|-------------------------|
|-----------------------8-|---7------5--------|-----------7---6---------|
|------7--------------5---|-3---3-7----6------|---------4---3---2--6h7--|
|---4----8-7--------------|---------------7-6-|-------------------------|
|
| Gtr II
|        PM|          PM    PM  PM   PM   PM|           PM  PM  PM
|   E  E E E   E   E  E E   E E E E  E E  E E    E   E  E E E E E  S S
|-------------[8]-[7]-----|-------------------|-------------------------|
|-------------------------|-------------------|-[7]-[6]-----------------|
|-------------------------|-------------------|-------------------------|
|-----------------------8-|---7---------------|-----------7---6---------|
|------7--------------5---|-3---6-7----6------|---------4---3---2--6h7--|
|---4----8-7--------------|----------3----7-6-|-------------------------|
|
| Gtr V
|  +H         +Q   Q        H        Q    Q      E  +H        E E  S S
|-(13)-------(13)--7------|-5-------12--------|-------------------/8h9--|
|-(13)-------(13)--4------|-5-------------9---|---------------9S8-------|
|-(11)-------(11)---------|--------------10---|--9--(9)-----------------|
|-------------------------|-------------------|-------------------------|


  Gtr I
   PM  PM|          PM     PM  PM          PM|           PM  PM  PM
   E E E E   E   E  E E    E E E E  E   E  E E    E   E  E E E E E  S S
|-----------[8]-[7]-----|----------------------|-------------------------|
|-----------------------|----------------------|-[7]-[6]-----------------|
|-----------------------|----------------------|-------------------------|
|---------------------8-|----7------5----------|-----------7---6---------|
|----7--------------5---|--3---3-7------6------|---------4---3---2--6h7--|
|--4---8-7--------------|------------------7-6-|-------------------------|
|
| Gtr II
|  PM  PM|          PM     PM  PM          PM|           PM  PM  PM
|  E E E E   E   E  E E    E E E E  E   E  E E    E   E  E E E E E  S S
|-----------[8]-[7]-----|----------------------|-------------------------|
|-----------------------|----------------------|-[7]-[6]-----------------|
|-----------------------|----------------------|-------------------------|
|---------------------8-|----7------5----------|-----------7---6---------|
|----7--------------5---|--3---3-7------6------|---------4---3---2--6h7--|
|--4---8-7--------------|------------------7-6-|-------------------------|
|
| Gtr V
|  H        +E   E  Q      H        E  +E  E E    E  +Q.     E E E  E
|-13-------(13)---------|----------12-(12)-----|-------------------13----|
|-13-------(13)-----9---|-12-------------------|---------------9S8-13----|
|-11-------(11)---------|-10-------------------|--8--(8)-----------11----|
|-----------------------|------------------7-6-|-------------7-----------|


  Gtr I
       PM|          PM    PM  PM        PM|           PM  PM----|
   E E E E   E   E  E E   E E E E  E E  E E    E   E  E E E e e e
|-----------[8]-[7]-----|-------------------|---------------------|
|-----------------------|-------------------|-[7]-[6]-------------|
|-----------------------|-------------------|---------------------|
|---------------------8-|---7------5--------|-----------7---4-3---|
|----7--------------5---|-3---3-7----6------|---------4---3-2-1-4-|
|--4---8-7--------------|---------------7-6-|-------------------2-|
|
| Gtr II
|      PM|          PM    PM  PM   PM   PM|           PM  PM----|
|  E E E E   E   E  E E   E E E E  E E  E E    E   E  E E E e e e
|-----------[8]-[7]-----|-------------------|---------------------|
|-----------------------|-------------------|-[7]-[6]-------------|
|-----------------------|-------------------|-----------8---------|
|---------------------8-|---7---------------|---------------4-3---|
|----7--------------5---|-3---6-7----6------|---------4---3-2-1-4-|
|--4---8-7--------------|----------3----7-6-|-------------------2-|
|
| Gtr V
|  H        +Q   Q        H        Q    Q      E  +H        E E E
|-13-------(13)--7------|-5-------12--------|---------------------|
|-13-------(13)--4------|-5-------------9---|---------------------|
|-11-------(11)---------|--------------10---|--9--(9)-------2-1---|
|-----------------------|-------------------|-------------------2-|


   Riff 2a (4:17)
    Gtr I
         ~~~               ~  PM----------------------|     PM----|
    E E  Q   E E E E   E E Q  S S S S S S S S   S S S S E E E E E E  4x
||-------------------|------------------------|----------------------||
||o------------------|------------------------|---------------------o||
||-------------------|------------------------|----------------------||
||---------------7S8-|-8S7----2-2-2-2-5-5-5-5-|-5-2-2-2--------------||
||o-3S4-[2]--3S4-----|-----1------------------|---------5S6-5-4-5-4-o||
||--1S2------1S2-5S6-|-6S5--------------------|---------3S4-3-2-3-2--||
|
|   Gtr II
|                          ~  PM----------------------|     PM----|
|   E E  E E E E E E   E E Q  S S S S S S S S   S S S S E E E E E E  4x
||-------------------|------------------------|----------------------||
||o------------------|------------------------|---------------------o||
||-------------------|------------------------|----------------------||
||-------4S5---------|------------------------|----------------------||
||o-3S4--2S3-3S4-7S8-|-8S7-4--0-0-0-0-3-3-3-3-|-3-0-0-0-5S6-5-4-5-4-o||
||--1S2------1S2-5S6-|-6S5--------------------|---------3S4-3-2-3-2--||


  Q=230
  W
|------|
|------|
|------|
|------|
|------|
|------|


 Riff 4 (4:37)
 4/4
  Gtr I
  S S S S S S S S S S S S  Q          S S S S S S S S S S S S S S S S
|-----------------------------------|----------------------------------|
|-----------------------------------|----------------------------------|
|-----------------------------------|----------------------------------|
|-----------------------------------|----------------------------------|
|-----------------5-5-5-5-[4]-------|----------------------------------|
|-3-3-3-3-4-4-4-4-------------------|-7-7-7-7-6-6-6-6-4-4-4-4-6-6-6-6--|
|
| Gtr II
| S S S S S S S S S S S S  S  S S S   S S S S S S S S S S S S S S S S
|-----------------------------------|----------------------------------|
|-----------------------------------|----------------------------------|
|-----------------------------------|----------------------------------|
|-----------------------------------|----------------------------------|
|-----------------5-5-5-5--4--4-4-4-|----------------------------------|
|-3-3-3-3-4-4-4-4-------------------|-7-7-7-7-6-6-6-6-4-4-4-4-6-6-6-6--|


  Gtr I
                  PM--|
  S S S S S S S S E E Q      Q        S S S S E E S S S S
|-------------------------|--------------------------------|
|-------------------------|--------------------------------|
|-------------------------|--------------------------------|
|-------------------------|--------------------------------|
|-----------------4-4-3---|-[7]----------------------------|
|-3-3-3-3-4-4-4-4-4-4-3---|-----------6-6-6-6-3h6-5-5-5-5--|
|
| Gtr II
|                 PM----|
| S S S S S S S S E E E E    S  S S S S S S S E E S S S S
|-------------------------|--------------------------------|
|-------------------------|--------------------------------|
|-------------------------|--------------------------------|
|-------------------------|--------------------------------|
|-------------------4---3-|--------------------------------|
|-3-3-3-3-4-4-4-4-2---2---|--5--5-5-5-6-6-6-6-3h6-5-5-5-5--|


  Gtr I
          PM------------------------|
  S S S S Q  Q  E E   E E E E E E E E
|-------------------|-----------------|
|-------------------|-----------------|
|-------------------|-----------------|
|-------------------|-----------------|
|---------5--4------|-----3-3---4---3-|
|-6-6-6-6-3--2--3-6-|-2-5-1-1-1---1---|
|
| Gtr II
|         PM------------------------|
| S S S S Q  Q  E E   E E E E E E E E
|-------------------|-----------------|
|-------------------|-----------------|
|-------------------|-----------------|
|-------------------|-----------------|
|---------5--4------|-----3-3---4---3-|
|-6-6-6-6-3--2--3-6-|-2-5-1-1-1---1---|


  Gtr I
  S S S S S S S S S S S S  Q          S S S S S S S S S S S S S S S S
|-----------------------------------|---------------------------------|
|-----------------------------------|---------------------------------|
|-----------------------------------|---------------------------------|
|-----------------------------------|---------------------------------|
|-----------------5-5-5-5-[4]-------|---------------------------------|
|-3-3-3-3-4-4-4-4-------------------|-7-7-7-7-6-6-6-6-4-4-4-4-6-6-6-6-|
|
| Gtr II
| S S S S S S S S S S S S  S  S S S   S S S S S S S S S S S S S S S S
|-----------------------------------|---------------------------------|
|-----------------------------------|---------------------------------|
|-----------------------------------|---------------------------------|
|-----------------------------------|-4-4-4-4-3-3-3-3---------3-3-3-3-|
|-----------------5-5-5-5--4--4-4-4-|---------------------------------|
|-3-3-3-3-4-4-4-4-------------------|-----------------4-4-4-4---------|


  Gtr I
                  PM--|
  S S S S S S S S E E Q      Q        S S S S E E S S S S
|-------------------------|--------------------------------|
|-------------------------|--------------------------------|
|-------------------------|--------------------------------|
|-------------------------|--------------------------------|
|-----------------4-4-3---|-[7]----------------------------|
|-3-3-3-3-4-4-4-4-4-4-3---|-----------6-6-6-6-3h6-5-5-5-5--|
|
| Gtr II
|                 PM----|
| S S S S S S S S E E E E    S  S S S S S S S E E S S S S
|-------------------------|--------------------------------|
|-------------------------|--------------------------------|
|-------------------------|--------------------------------|
|-------------------------|--------------------------------|
|-------------------4---3-|--------------------------------|
|-3-3-3-3-4-4-4-4-2---2---|--5--5-5-5-6-6-6-6-3h6-5-5-5-5--|


  Gtr I
          PM------------------------|
  S S S S Q  Q  E E   E E E E E E E E   W
|-------------------|-----------------|------*|
|-------------------|-----------------|------*|
|-------------------|-----------------|------*|
|-------------------|-----------------|------*|
|---------5--4------|-----3-3---4---3-|------*|
|-6-6-6-6-3--2--3-6-|-2-5-1-1-1---1---|------*|
|
| Gtr II
|         PM------------------------|
| S S S S Q  Q  E E   E E E E E E E E   W
|-------------------|-----------------|------*|
|-------------------|-----------------|------*|
|-------------------|-----------------|------*|
|-------------------|-----------------|------*|
|---------5--4------|-----3-3---4---3-|------*|
|-6-6-6-6-3--2--3-6-|-2-5-1-1-1---1---|------*|

End.
Добавлено: 12.07.2013
Вам также может быть интересно:
Другие материалы по этой песне:

Страница создана 31.05.2012
http://primanota.ru/gorguts/condemned-to-obscurity-chords.htm
Привет, Гость.
Предлагаем пройти революционный курс по гитаре.
Подарок от PrimaNota.Ru, забирай!