PrimaNota.ru - самый крупный в мире бесплатный архив песенных текстов, аккордов, табулатур и нот


Gorgoroth - Wound Upon Wound - текст песни, таба, видео

Регистрация Запомнить меня
Войти через:  Facebook Google Twitter Vk Yandex Mail.ru

Gorgoroth - Wound Upon Wound - текст песни, таба, видео

Печатать
Просмотров: 302
Авторы музыки: King ov Hell
Авторы текста: Gaahl
Gorgoroth - Wound upon wound

Tab by militant


                                   
|-----------------------------------------------------------------------|
|-----------------------------------------------------------------------|
|-----------------------------------------------------------------------|
|-----------------------------6h7p6-------------------------------------|
|----7777----7h8p7----7777-------------7777----7h8p7------------6666----|
|0000----0000-----0000----8888-----0000----0000-----888855557777--------|


|-----------------------------------------------------------------------|
|-----------------------------------------------------------------------|
|-----------------------------------------------------------------------|
|-----------------------------------------------------------------------|
|-----------------------------------------------------------------------|
|0-000-000-000-000-000-001-1111-0-000-000-000-000-000-001-111-444-------|


|-----------------------------------------------------------------------|
|-----------------------------------------------------------------------|
|-----------------------------------------------------------------------|
|-----------------------------------------------------------------------|
|-----------------------------------------------------------------------|
|0-000-000-000-000-000-001-1111-0-000-000-000-000-000-000-000-000-------|

|-----------------------------------------------------------------------|
|-----------------------------------------------------------------------|
|------------------------0----------------------------------------------|
|--------------------------------------------6-5------------------------|
|--------------------------------------------8-7------------------------|
|0-0-000-0-000-0-000-0-1---0-000-0-000-0-000----------------------------|

|-----------------------------------------------------------------------|
|-----------------------------------------------------------------------|
|------------------------0----------------------------------------------|
|--------------------------------------------666-555--------------------|
|--------------------------------------------888-777--------------------|
|0-0-000-0-000-0-000-0-1---0-000-0-000-0-000----------------------------|

|-0-----0---1p0--0------------------------------------------------------|
|--0-----0--------0-----------------------------------------------------|
|---0-----0--------0----------------------------------------------------|
|2-----2--------2-------------------------------------------------------|
|2-----2--------2------333333222222333----------------------------------|
|0---3-0---1----0---3--444444333333111----------------------------------|



Добавлено: 21.07.2012
Другие материалы по этой песне:
  • Аккорды и текст

Страница создана 21.07.2012
http://primanota.ru/gorgoroth/wound-upon-wound-chords.htm
Привет, Гость.
Предлагаем пройти революционный курс по гитаре.
Подарок от PrimaNota.Ru, забирай!