PrimaNota.ru - самый крупный в мире бесплатный архив песенных текстов, аккордов, табулатур и нот


Gorgasm - Stabwound Intercourse - текст песни, таба, видео

Регистрация Запомнить меня
Войти через:  Facebook Google Twitter Vk Yandex Mail.ru

Gorgasm - Stabwound Intercourse - текст песни, таба, видео

Печатать
Просмотров: 138
--- GORGASM ---
                          "Stabwound Intercourse"
                     From album: "Stabwound Intercourse"
                     


NOTES:
 " - tremolo
tr.. - tremolo picking notes
 x - hard palm muting
 = - sustained note

h - hammer on              ~ - vibrato
p - pull off               b - bend string
^ - pinch harmonics        p.m. - palm mute 
x - muted note             t - right hand tap
/ - slide up               \ - slide down

TUNE TO B 

[Riff 1 (x4)]              [Riff 2 (x4)]
-|-----------------|     -|------------------|
-|-----------------|     -|------------------|
-|-----------------|     -|------------------|
-|-----------------|     -|------------------|
-|-----------4-3---|     -|------------4-3---|
-|-3-4-3-4-3-----4-|     -|-3"4"3"4"3"-----4-|
   . . . . . . . .                     . . .

[RIFF 1 (x4)] [RIFF 2 (x4)]

[Riff 3 (x2)]
-|-----------------------------------|---------------------------------|
-|-----------------------------------|---------------------------------|
-|-----------------------------------|---------------------------------|
-|-----------------------------------|-------------------------2-1-----|
-|-5-4-----4-3-----3-2---------------|-5-4-----4-3-----3-2---------4-3-|
-|-----5-4-----4-3-----3-2-0-1-2-3-4-|-----5-4-----4-3-----3-2---------|
   . . . . . . . . . . . . . . . . .   . . . . . . . . . . . . . . . .

[Riff 4 (x8)]
-|--------------------------------|
-|--------------------------------|
-|--------------------------------|
-|-------5-4---3~-----------------|
-|-----4-----5----------------4h5-|
-|-3-2------------0-1-3-1-0-1-----|
   . . . . . .    . . . . . .

[Riff 5 (x2)]
-|-------------------------------------|-------------------------------------|
-|-------------------------------------|-------------------------------------|
-|-------------------------------------|-------------------------------------|
-|-------------2"---------2"-----------|-------------2"---------2"-----------|
-|-----3"2"1"----1"-3p2p1---1"-4-5-3-4-|-----3"2"1"----1"-3p2p1---1"-4-5-4-3-|
-|-0"--------------------------2-3-1-2-|-0"--------------------------2-3-2-1-|
                               . . . .                               . . . .

[Riff 6 (x4)]
-|--------------------------------|--------------------------------|
-|--------------------------------|--------------------------------|
-|--------------------------------|--------------------------------|
-|--------------------------------|--------------------------------|
-|-5-5-5-5-4---5~---------5---5---|-5-5-5-5-4---5~---------4---3---|
-|-3-3-3-3---3----111-111-3-1-3-1-|-3-3-3-3---3----111-111---1---1-|
   . . . .   .    ... ...   .   .   . . . .   .    ... ...   .   .
 
[Riff 7 (x2)]
-|-------------------------------------------------------------|
-|-------------------------------------------------------------|
-|-------------------------------------------------------------|
-|-------------------------------------------------------------|
-|-5-------3-------5-------3-------6-------3-------5-6-5-3-5-3-|
-|-3-0-0-0-1-0-0-0-3-0-0-0-1-0-0-0-4-0-0-0-1-0-0-0-3-4-3-1-3-1-|
   . . . . . . . . . . . . . . . . . . . . . . . . . . . . . .

[Outro]
-|--------------------------|--------------------------|
-|--------------------------|--------------------------|
-|--------------------------|--------------------------|
-|--------------------------|-5"3"6"3"5"3"-------------|
-|--------------5-6-5-3-5-3-|--------------6-6-6-5-5-5-|
-|-3"1"4"1"3"1"-3-4-3-1-3-1-|--------------4-4-4-3-3-3-|
 |              . . . . . . |              . . . . . . |
-|--------------------------|--------------------------|
-|--------------------------|--------------------------|
-|--------------------------|--------------------------|
-|--------------------------|--------------------------|
-|--------------5-6-5-3-5-3-|--------------5-6-5-3-5-3-|
-|-3"1"4"1"3"1"-3-4-3-1-3-1-|-3"1"4"1"3"1"-3-4-3-1-3-1-|
                . . . . . .                . . . . . .

[Riff 8 (x2)] 
-|-----------------------|-----------------------|-----------------------|
-|-----------------------|-----------------------|-----------------------|
-|-----------------------|-----------------------|-----------------------|
-|-----------2"------6-9-|-----------2"--9-6-----|-----------2"------6-9-|
-|-----3"2"1"----5-8-----|-----3"2"1"--------8-5-|-----3"2"1"----5-8-----|
-|-0"1"------------------|-0"1"------------------|-0"1"------------------|
                 . . . .                 . . . .                 . . . . 

               [Ending 1]                [Ending 2]
-|------------|-------------------||    |------------------------------------|
-|------------|-------------------||    |------------------------------------|
-|------------|-------------------||    |------------------------------------|
-|------------|-9-6---------------||    |-8-5--------------9-6---------------|
-|-----3"2"1"-|-----8-5------8-11-||    |-----7-4-----7-10-----8-5------8-11-|
-|-0"1"-------|---------7-10------||    |---------6-9--------------7-10------|
                . . . . . .  . .          . . . . . . . .  . . . . . .  . .

[Riff 9 (x2)]
-|--------------------------------------|
-|--------------------------------------|
-|--------------------------------------|
-|-----------^--------------------------|
-|-4--5-5--4-1-4-3------4--5-5--4-3-4-3-|
-|-2--3-3--2---2-1-[x3]-2--3-3--2-1-2-1-|
   .  . .  .   . .      .  . .  . . . .

END OF SONG
Добавлено: 07.07.2013
Другие материалы по этой песне:

Страница создана 06.05.2012
http://primanota.ru/gorgasm/stabwound-intercourse-chords.htm
Привет, Гость.
Предлагаем пройти революционный курс по гитаре.
Подарок от PrimaNota.Ru, забирай!