PrimaNota.ru - самый крупный в мире бесплатный архив песенных текстов, аккордов, табулатур и нот


Gorgasm - Necrosodomy - текст песни, таба, видео

Регистрация Запомнить меня
Войти через:  Facebook Google Twitter Vk Yandex Mail.ru

Gorgasm - Necrosodomy - текст песни, таба, видео

Печатать
Просмотров: 125
Уроки эстрадного вокала в Санкт-Петербурге
--- GORGASM ---
                              "Necrosodomy"
                     From album: "Stabwound Intercourse"
                     

NOTES:
 " - tremolo
tr.. - tremolo picking notes
 x - hard palm muting
 = - sustained note

h - hammer on              ~ - vibrato
p - pull off               b - bend string
^ - pinch harmonics        p.m. - palm mute 
x - muted note             t - right hand tap
/ - slide up               \ - slide down

TUNE TO B 

[Riff 1a]
-|--------------------------------|
-|--------------------------------|
-|--------------------------------|
-|--------------------------------|
-|-3"4"------------------3"4"-----|
-|-----4"5"6"5"4"5"-[x3]-----4"5"-|

[Riff 2]
-|-------------------------------------|-------------------------------------|
-|-------------------------------------|-------------------------------------|
-|-------------------------------------|-------------------------------------|
-|-5"-8"-5"----7-7-7-6-6-6-7-7-7-6-6-6-|-------------------------------------|
-|----------7"-5-5-5-4-4-4-5-5-5-4-4-4-|-5"-8"-5"----7-7-7-6-6-6-7-7-7-6-6-6-|
-|-------------------------------------|----------7"-5-5-5-4-4-4-5-5-5-4-4-4-|
               . . . . . . . . . . . .               . . . . . . . . . . . .

[Riff 1b]
-|--------------------------------|
-|--------------------------------|
-|--------------------------------|
-|--------------------------------|
-|-3"4"------------------3"4"-----|
-|-----4"5"6"5"4"5"-[x5]-----4"5"-|

[RIFF 2 (x2)]

[Riff 3 (x2)]
-|-------------------|-------------------|
-|-------------------|-------------------|
-|-------------------|-------------------|
-|-------------------|-------------------|
-|-5-5-5-6-6-6-------|-5-5-5-6-6-6-4"-3"-|
-|-3-3-3-4-4-4-4"-5"-|-3-3-3-4-4-4-------|
   . . . . . .         . . . . . .

[Riff 4 (x3)]
-|---------------------------------|---------------------------------|
-|---------------------------------|---------------------------------|
-|---------------------------------|---------------------------------|
-|---------------------------------|-----------------------------3-2-|
-|-----5-6-5-----------2-3-----3-2-|-----5-6-5-----------2-3---------|
-|-2-3-------6-5-4-3-4-----3-2-----|-2-3-------6-5-4-3-4-----3-2-----|
   . . . . . . . . . . . . . . . .   . . . . . . . . . . . . . . . .

[Riff 5]
-|----------------------------|---------------------------------|
-|----------------------------|---------------------------------|
-|-----4-------4--------------|-----4---5---2---2---4---5---4---|
-|-2-------5-------3----6-----|-2-------------------------------|
-|----------------------------|---------------------------------|
-|-------------------------\7-|---------------------------------|
 |tr..........................|tr...............................|
-|----------------------------|---------------------------------|
-|----------------------------|---------------------------------|
-|-6~~~-----------------------|-----4-------4---3---3---6-------|
-|----------------------------|-2-------5-------------------2---|
-|-------------------------\2-|---------------------------------|
-|----------------------------|---------------------------------|
                               tr...............................

[..continue]
-|---------------------------------|---------------------------------|
-|---------------------------------|-5-------------------------------|
-|-----4---5---7---7---4---5---5---|-----4---5---2---2---5---4---4---|
-|-2-------------------------------|---------------------------------|
-|---------------------------------|---------------------------------|
-|---------------------------------|---------------------------------|
 |tr...............................|tr.............................. |
-|---------------------------------|---------------------------------|
-|---------------------------------|---------------------------------|
-|-----4-------4---3---3---6-------|-----4-------4---3---3---6-------|
-|-2-------5-------------------2---|-2-------5-------------------2---|
-|---------------------------------|---------------------------------|
-|---------------------------------|---------------------------------|
  tr............................... tr...............................

[Riff 5 (x4)]               [Riff 6 (x2)]
-|--------------------|     -|--------------|-----------------|
-|--------------------|     -|--------------|-----------------|
-|--------------------|     -|--------------|-----------------|
-|---5---7---5--------|     -|----7---------|----7------------|
-|-----4-------4-h7p4-|     -|-4---------5--|-4---------5h7-5-|
-|-3-------3----------|     -|------5-4-----|-------5-4-------|
 |tr..................|      |tr............|tr...............|
-|--------------------|     -|--------------|-----------------|
-|--------------------|     -|--------------|-----------------|
-|--------------------|     -|--------------|-----------------|
-|---5---7---5--------|     -|-7------------|-7---------------|
-|-----4-------4-h7p4-|     -|----4------5--|----4------5h7-5-|
-|-3-------3----------|     -|------5-4-----|-------5-4-------|
  tr..................        tr............ tr..............

[RIFF 5 (x4)] [RIFF 6 (x2)]

[Riff 7 (x2)]
-|---------------------------------|-|------------------------------------|
-|---------------------------------|-|------------------------------------|
-|---------------------------------|-|------------------------------------|
-|-------------------------3---3---|-|------------------------------------|
-|-444-444-444-444-555-555-1-0-1-0-|-|-555-444-555-777-888-777-555-777----|
-|-222-222-222-222-333-333---------|-|-333-222-333-555-666-555-333-555-x2-|
   ... ... ... ... ... ... . . . .     ... ... ... ... ... ... ... ...

[Ending]
-|-------------------------------------|
-|-------------------------------------|
-|-------------------------------------|
-|-------------------------3---3-------|
-|-444-444-444-444-555-555-1-0-1-0-555-|
-|-222-222-222-222-333-333---------332-|
   ... ... ... ... ... ... . . . . ...

END OF SONG
Добавлено: 01.07.2013
Вам также может быть интересно:
Другие материалы по этой песне:
  • Аккорды и текст

Страница создана 12.05.2012
http://primanota.ru/gorgasm/necrosodomy-chords.htm
Привет, Гость.
Предлагаем пройти революционный курс по гитаре.
Подарок от PrimaNota.Ru, забирай!