PrimaNota.ru - самый крупный в мире бесплатный архив песенных текстов, аккордов, табулатур и нот


Gorgasm - Masticate To Dominate - текст песни, таба, видео

Регистрация Запомнить меня
Войти через:  Facebook Google Twitter Vk Yandex Mail.ru

Gorgasm - Masticate To Dominate - текст песни, таба, видео

Печатать
Просмотров: 114
.    -   palm mute          / - slide up to
\    -   slide down to      ~ - vibrato
h    -   hammer on          b - Bend
p    -   pull off           Suffixes for bend
t    -   tap                f - full bend     h - half bend
ph   -   pinched harmonic   q - quarter bend t - tap bend
*    -   see comment        ^ - Hold bend     r release bend
x    -   Stuccatto          ~ - vibrato bend
,    -   slight palm mute   () - ghost note, sustained note
"    -   tremolo note       <> - Trill

Tuning B E A D F# B


Intro 0:00
Guitar 1
|------------------------------------------------|
|------------------------------------------------|
|------------------------------------------------|
|------------------------------------------------|
|"8----------------------"8----------------------|
|---"6-"5-"8-"4-"7-"3-"6----"6-"5-"8-"4-"6-"3-"6-|


|------------------------------------------------|
|------------------------------------------------|
|------------------------------------------------|
|------------------------------------------------|
|------------------------"8----------------------|
|---------------------------"6-"5-"8-"4-"6-"3-"6-|
Riff 1 0:04
Guitar 1
|------------------------------------------------|
|------------------------------------------------|
|------------------------------------------------|
|------------------------------------------------|
|"8----------------------"8----------------------|
|---"6-"5-"8-"4-"7-"3-"6----"6-"5-"8-"4-"6-"3-"6-|


Guitar 2
|------------------------------------------------|
|-Ater playing this 2 times, Gtr 2 joins Gtr 1---|
|------------------------------------------------|
|"8----------------------"8----------------------|
|---"6-"5-"8-"4-"7-"3-"6----"6-"5-"8-"4-"6-"3-"6-|
|------------------------------------------------|



Riff 2 0:11
Both Guitars
|---------1st, 2nd-------|------3rd-----------|
|------------------------|--------------------|
|------------------------|--------------------|
|-------5h6--------5h6p5-|--------------------|
|------------------------|--------------------|
|-3-4-3------3-4-3-------|-3-4-3-5-4-5-6-5-6--|
  . . .      . . .         . . . . . . . . . .

Guitar 2 harmony @ 0:18
|-----------------------|-------------------------|
|-----------------------|-Both Gtrs after harmony-|
|-------5h6-------5h6p5-|-------------------------|
|-----------------------|-------------------------|
|-----------------------|-------------------------|
|-3-4-3-----3-4-3-------|-3-4-3-5-4-5-6-5-6-5-4-5-|
  . . .     . . .         . . . . . . . . . . . .

Riff 2 Ending 0:30
Both Guitars
|-------------|
|-------------|
|-------------|
|-------------|
|-------------|
|-3-4-3-5-4-5-|
  . . . . . .
Fill @ 0:31
Guitar 1 only
|----------|
|----------|
|----------|
|---3---4\-|
|-1---1----|
|----------|
  . . . .


Riff 3 0:32
Both Guitars
|------------------------------------------|
|------------------------------------------|
|------------------------------------------|
|-------------------------------ph---3---4-|
|-"-"-"-"-"-"-"-"-"-"-"-"-"-111-2--1---1---|
|-1-------3-4-1-3-----4--------------------|
                                   . . . .

-------------------------------------------|
-------------------------------------------|
-------------------------------------------|
-----------------------------3---4-------7-|
-"-"-"-"-"-"-"-"-"-"-"-"-"-1---1-----6-----|
-1-------3-4-1-3-----4-------------4---4---|
                           . . . . . . . .

Riff 4 intro 0:47
Guitar 1 only
|---------------|
|---------------|
|---------------|
|---------------|
|-5-6-5-4-5-3-4-|
|-3-4-3-2-3-1-2-|
  . . .       .


Riff 4 0:49
Both Guitars
|---------------|---------------|---------------|---------------|-------|
|-------1x------|------3x-------|------1x-------|------1x-------|--1x---|
|---------------|---------------|---------------|---------------|-------|
|---------------|---------------|---------------|---------------|-------|
|-3-4-3-2-3-1-2-|-5-6-5-4-5-3-4-|-3-4-3-2-3-1-2-|-5-6-5-4-5-3-4-|-5-6-5-|
|-5-6-5-4-5-3-4-|-3-4-3-2-3-1-2-|-5-6-5-4-5-3-4-|-3-4-3-2-3-1-2-|-3-4-3-|
  . . . . . . .   . . . . . . .   . . . . . . .   . . . . . . .   . . .
Riff 5 1:00
Guitar 1
|------------------------------------------------------------------|
|------------------------------------------------------------------|
|-----------------3h4---------------------------------8/9----9/10--|
|-4h5-----------------------------4h5--------------6-------7-------|
|-----4p3-----3h4-----4p3-----3h4-----4p3-----3h4------------------|
|---------4h6-------------4h6-------------4h6----------------------|
                                                   .       .

Guitar 2
|-------------------------------------------------------------------|
|-------------------------------------------------------------------|
|-----------------0h1----------------------------------5/6-----6/7--|
|-1h2-----------------------------1h2--------------3-3-----4-4------|
|-----1p0-----1h2-----1p0-----1h2-----1p0-----1h2-------------------|
|---------1h3-------------1h3-------------1h3-----------------------|




        Riff 6 1:15
        Guitar 1
------|------------------------------------------|
------|------------------------------------------|
-9/10-|---10----10----10-------------------------|
------|12----12----12----12h14----14----14----14-|
------|------------------------15----15----15----|
------|------------------------------------------|

-------------------------------------------------|
-------------------------------------------------|
-------------------------------------------------|
-10h12----12----12----12-12h14----14----14----14-|
-------13----13----13----------15----15----15----|
-------------------------------------------------|


------------------------------------------------|
------------------------------------------------|
-9/10----10----10----10-------------------------|
------12----12----12----12h14----14----14----14-|
------------------------------15----15----15----|
------------------------------------------------|


-------------------------------------------------|
-------------------------------------------------|
-------------------------------------------------|
-10h12----12----12----12-10h12----12----12----12-|
-------13----13----13----------13----13----13----|
-------------------------------------------------|
Guitar 2
-----|------------------------------------------|
-----|------------------------------------------|
-6/7-|---10----10----10-------------------------|
-----|12----12----12----12h14----14----14----14-|
-----|------------------------15----15----15----|
-----|------------------------------------------|

-------------------------------------------------|
-------------------------------------------------|
-------------------------------------------------|
-10h12----12----12----12-12h14----14-15-14-12-14-|
-------13----13----13----------15----------------|
-------------------------------------------------|



------------------------------------------------|
------------------------------------------------|
-----13~~~~~-------------14~~~~~----------------|
-15------------------15-------------------------|
------------------------------------------------|
------------------------------------------------|


-------------------------------------------------|
-------------------------------------------------|
-------------------------------------------------|
-10h12----12----12----12-10h12----12----12----12-|
-------13----13----13----------13----13----13----|
-------------------------------------------------|

Riff 7 1:26
Both Guitars
|---------------------------------------|
|---------------------------------------|
|----------------------5"---------------|
|-------------7"----------9-10-7-9----8-|
|-7"-------7"----7"-8"-------------10---|
|----5"-8"------------------------------|
                          . . . . . .

-----------------------------------------|
-----------------------------------------|
-----------------------------------------|
-----------------------------------------|
-7"-------7"-8"-5"-4"-7"-----------------|
----5"-8"----------------5-7-5-7-8-5-7-8-|
                         . . . . . . . .
Riff 8 1:43
Both Guitars
|--------------------------------|
|--------------------------------|
|-----------------------------7\-|
|-----------------8---7----------|
|---------5h6---7---5---6-9-8----|
|-5-7h8-5-----8------------------|
  .     .     . . . . . . . .




Riff 9 1:51
Guitar 1
|----------------|
|----------------|
|----------------|
|-----------4~~~-|
|-3~~~-6~~~------|
|----------------|


Guitar 2
|----------------|
|----------------|
|----------------|
|----------------|
|-----------6~~~-|
|-5~~~-8~~~------|



Riff 10 1:54
Guitar 1
|-----------------------------------------------|
|------------play 2x----------------------------|
|-----------------------------1-----------------|
|-----------------3---1---4-------3---1---3---1-|
|-3---5---3---5---------------------------------|
|---0---0---0---0---0---0---0---0---0---0---0---|
  . . . . . . . . . . . . . . . . . . . . . .

|-----------------------------------------------|
|------------play under guitar 1 1st time-------|
|-----------------------------1-----------------|
|-----------------3---1---4-------3---1---3---1-|
|-3---5---3---5---------------------------------|
|---0---0---0---0---0---0---0---0---0---0---0---|
  . . . . . . . . . . . . . . . . . . . . . . .
Riff 10 Cont.
-----------------------------------------------|
-----play under guitar 1 2nd time--2phb~~~-----|
-----------------------------1-----------------|
-----------------3---1---4-------3-------------|
-3---5---3---5---------------------------------|
---0---0---0---0---0---0---0---0---------------|
 . . . . . . . . . . . . . . . . .

2:00 - Both Guitars play Riff 10 as Gtr 1 did from the start.

2:05 - Riff 4 intro + Riff 4

2:17 Riff 2

2:37 - Song ends.
Добавлено: 03.10.2013
Другие материалы по этой песне:
  • Аккорды и текст

Страница создана 24.02.2012
http://primanota.ru/gorgasm/masticate-to-dominate-chords.htm
Привет, Гость.
Предлагаем пройти революционный курс по гитаре.
Подарок от PrimaNota.Ru, забирай!