PrimaNota.ru - самый крупный в мире бесплатный архив песенных текстов, аккордов, табулатур и нот


Gorgasm - Lacerated Masturbation - текст песни, таба, видео

Регистрация Запомнить меня
Войти через:  Facebook Google Twitter Vk Yandex Mail.ru

Gorgasm - Lacerated Masturbation - текст песни, таба, видео

Печатать
Просмотров: 199
Уроки эстрадного вокала в Санкт-Петербурге
Band: Gorgasm
Album: Masticate to dominate
Song:  Lacerated Masturbation

Copyright (c)  Unique leader records 2003
Version 1.1 - 17.08.06

Transcribed By: Sigbjørn Henning
Email:          Siggi_scratch@hotmail.com

http://www.myspace.com/gorgasm2


.  - palm mute           /  - slide up to
\  - slide down to       ~  - vibrato
h  - hammer on           b  - Bend
p  - pull off            Suffixes for bend
t  - tap                 f  - full bend    h - half bend
ph - pinched harmonic    q  - quarter bend t - tap bend
*  - see comment         ^  - Hold bend    r release bend
x  - Stuccatto           ~  - vibrato bend
,  - slight palm mute    () - ghost note, sustained note
"  - tremolo note        <> - Trill

Tuning B E A D F# B


Riff 1 0:00
Both Guitars
|--------------------------------------------------------|
|--------------------------------------------------------|
|------------------3-----4---------4444---------55-4h5-3-|
|---------4440-------------------------------------------|
|--------------------------------------------------------|
|-2-1-2-3------1-2---2-3---2-1-2-3------1-2-3-2----------|
  . . . .      . .   . .   . . . .      . . . .


--------------------------------------------------------------|
--------------------------------------------------------------|
------------------3-----4---------4444------5-----------------|
---------4440-------------------------------------------------|
----------------------------------------------3-4-3-4-6-7-6-7-|
-2-1-2-3------1-2---3-4---2-1-2-3------1-2-3--1-2-1-2-4-5-4-5-|
 . . . .      . .   . .   . . . .      . . .  . . . . . . . .

Riff 2 0:17
Both Guitars
|-----------------|
|-----------------|
|-----------------|
|-----------------|
|-3-4-3-4-6-5-6-7-|
|-1-2-1-2-4-3-4-5-|
  . . . . . . . .


Riff 3a 0:20
Both Guitars
|-----------------|
|-----------------|
|-----------------|
|-----------------|
|-----------------|
|-2-1-2-3-4\3-4/5-|
  . . . .


4th time guitar 2 harmony
|-----------------|
|-----------------|
|-----------------|
|-----------------|
|---------4\3-4/5-|
|-2-1-2-3---------|
  . . . .


Riff 3b 0:24
Both Guitars
|-----------------|
|-----------------|
|-----------------|
|-----------------|
|-4-3-4-5-6-5-6-7-|
|-2-1-2-3-4-3-4-5-|
  . . . . . . . .

Last time
|-------------|
|-------------|
|-------------|
|-------------|
|-4-3-4-5-6-5-|
|-2-1-2-3-4-3-|
  . . . . . .


Riff 5a 0:33
Both Guitars
|--------------------------------------|
|--------------------------------------|
|--------------------------------------|
|-----7777-----------------------------|
|-4-3------5-7-5-7--10-10-9-9-9-9-8-8--|
|-4-3------5-7-5-7----8--8-7-7-7-7-6-6-|
  . .               . . ..............

Riff 5b 0:41
Guitar 1
|--------------------------------------|
|--------------------------------------|
|-------------------7-7-6-6-6-6-5-5----|
|-----7777-----------5-5-4-4-4-4-3-3---|
|-4-3------5-7-5-7---------------------|
|-4-3------5-7-5-7---------------------|
  . .               ................


Guitar 2
|--------------------------------------|
|--------------------------------------|
|-----7777-----------------------------|
|--------------------------------------|
|-4-3------5-7-5-7--10-10-9-9-9-9-8-8--|
|-4-3------5-7-5-7----8--8-7-7-7-7-6-6-|
  . .               . .. ..............

Riff 5c 0:45
Guitar 1
|-------------------------------------------------------------------|
|-------------------------------------------------------------------|
|-------------------7-7-6-6-6-6-5-5-5-5-4-4-4-4-3-3--7-7-6-6-6-6-5--|
|-----7777-----------5-5-4-4-4-4-3-3-3-3-2-2-2-2-1-1--5-5-4-4-4-4---|
|-4-3------5-7-5-7--------------------------------------------------|
|-4-3------5-7-5-7--------------------------------------------------|
  . .               ..............................................

Guitar 2
|---------------------------------------------------------------------|
|---------------------------------------------------------------------|
|-----7777------------------------------------------------------------|
|---------------------------------------------------------------------|
|-4-3------5-7-5-7--10-10-9-9-9-9-8-8-8-8-7-7-7-7-6-6-10-10-9-9-9-9-8-|
|-4-3------5-7-5-7----8--8-7-7-7-7-6-6-6-6-5-5-5-4-4----8--8-7-7-7-7--|
  . .                ... ...........................  . .. ..........

Riff 6 0:53
Guitar 1
|----------------------------------------------------------------------|
|----------------------------------------------------------------------|
|----------------------------------------------------------------------|
|6666----6666------6666------9999-------6666----6666-------7-6-----6-5-|
|----7766----776655----776655----776655-----7766----776655-7-6-7-6-6-5-|
|--------------------------------------------------------------7-6-----|
                                                           . . . . . .

--------------------------------------------------------------------------|
--------------------------------------------------------------------------|
--------------------------------------------------------------------------|
6666----6666------6666------9999-------6666----6666-------7-6-----6-5-----|
----7766----776655----776655----776655-----7766----776655-7-6-7-6-6-5-6-5-|
--------------------------------------------------------------7-6-----6-5-|
                                                          . . . . . . . .

------------------------------------------------------------------|
------------------------------------------------------------------|
------------------------------------------------------------------|
6666----6666------6666------9999-------6666----6666-------7-6-----|
----7766----776655----776655----776655-----7766----776655-7-6-7-6-|
--------------------------------------------------------------7-6-|
                                                          . . . .

----------------------------------------------------------------------|
----------------------------------------------------------------------|
----------------------------------------------------------------------|
6666----6666------6666------9999-------6666----6666-------7-6-----6-5-|
----7766----776655----776655----776655-----7766----776655-7-6-7-6-6-5-|
--------------------------------------------------------------7-6-----|
                                                          . . . . . .

Guitar 2
|----------------------------------------------------------------------|
|----------------------------------------------------------------------|
|----------------------------------------------------------------------|
|----------------------------------------------------------7-6-----6-5-|
|----------------------------------------------------------7-6-7-6-6-5-|
|--------------------------------------------------------------7-6-----|
                                                           . . . . . .


--------------------------------------------------------------------------|
--------------------------------------------------------------------------|
--------------------------------------------------------------------------|
6666----6666------6666------9999-------6666----6666-------7-6-----6-5-----|
----7766----776655----776655----776655-----7766----776655-7-6-7-6-6-5-6-5-|
--------------------------------------------------------------7-6-----6-5-|
                                                          . . . . . . . .


--------------------------------------------------------------------|
--------------------------------------------------------------------|
6666----6666------6666------10101010-----6666----6666---------------|
----7766----776655----776655--------7766-----7766----776655-7-7-----|
------------------------------------------------------------7-7-7-6-|
----------------------------------------------------------------7-6-|
                                                            . . . .

------------------------------------------------------------------------|
------------------------------------------------------------------------|
6666----6666------6666------10101010-----6666----6666-------------------|
----7766----776655----776655--------7766-----7766----776655-7-6-----6-5-|
------------------------------------------------------------7-6-7-6-6-5-|
----------------------------------------------------------------7-6-----|
                                                            . . . . . .

Riff 6 1:09
Both Guitars
|------------------------------------------------|
|------------------------------------------------|
|------------------------------------------------|
|------------------------------------------------|
|-6-5------7-6-8-7------7-6-----7-6------6-5-----|
|-----6-5----------8-7------7-6-----7-6------6-5-|
  . . . .  . . . . . .  . . . . . . . .  . . . .

---------------------------------------------------------|
---------------------------------------------------------|
---------------------------------------------------------|
---------------------------------------------------------|
-6-5-7-6------6-5-7-6------7-6------7-6-8-7-7-6------6-5-|
---------7-6----------7-6------7-6--------------7-6------|
 . . . . . .  . . . . . .  . . . .  . . . . . . . .  . .


Riff 7 1:22
Both Guitars     Gtr 1
|---------------|--------|
|-----10----10--|-----11-|
|-----9-----7---|-----10-|
|-888-8-888-8---|-888-9--|
|---------------|--------|


Riff 8 1:24
Both Guitars
|---------------------------------------------|
|---------------------------------------------|
|-----------------------------------10-----10-|
|-----------------------------------9------9--|
|----------------7"8"-----------888-8--888-8--|
|-6"5"-7"5"-7"5"------6"5"-7"5"---------------|


                               only guitar 1
------------------------------|---------------|
------------------------------|---------------|
------------------------------|--------8"7"8"-|
------------------------------|-8"7"8"--------|
----------------7"8"----------|---------------|
-6"5"-7"5"-7"5"------6"5"-7"5"|---------------|

Riff 9 1:40
Both Guitars +3
|--------------------------------------------------|
|--------------------------------------------------|
|--------------------------------------------------|
|--------------------------------------------------|
|-6-7-6-5-6-5-5-6-5-7-6-7--6-7-6-5-6-5-9-8-9-7-6-7-|
|-4-5-4-3-4-3-3-4-3-5-4-5--4-5-4-3-4-3-7-6-7-5-4-5-|
  . . . . . . . . . . . .  . . . . . . . . . . . .

-----------------------------------------------------|
-----------------------------------------------------|
-------------4444------------------------------4444--|
-----------------------------------------------------|
-6-7-6-5-6-5------6-7-6-5-6-5-5-6-5-7-6-7-6-7--------|
-4-5-4-3-4-3------4-5-4-3-4-3-3-4-3-5-4-5-4-5--------|
 . . . . . .

Riff 9 Ending
Guitar 1
-------------------------------|
-------------------------------|
-------------------------------|
-------------------------------|
-6-7-6-5-6-5-5-6-5-7-6-7-6-7-6-|
-4-5-4-3-4-3-3-4-3-5-4-5-4-5-4-|
 . . . . . . . . . . . . . . .


Guitar 2
--------------Ph---------------|
---------------4~~~~~----------|
-------------------------------|
-------------------------------|
-6-7-6-5-6-5-5-----------------|
-4-5-4-3-4-3-3-----------------|



Riff 10 1:50
Both Guitars
|----------------------------------|------------------------------|
|-----------1st, 2nd---------------|---------3rd------------------|
|----------------------------------|------------------------------|
|----------------------------------|---------------------------ph-|
|-7-8-7-6-5-6-777--7-8-7-6-5-6-7-7-|7-8-7-6-5-6-7--7-8-7-6-5-6-3--|
|-4-5-5-4-3-4-555--4-5-5-4-3-4-5-5-|4-5-5-4-3-4-5--4-5-5-4-3-4----|
  . . . . . . ...  . . . . . . . .  . . . . . . .  . . . . . .

-----------4th--------------|
----------------------------|
----------------------------|
----------------------------|
-7-8-7-6-5-6-777--7-8-7-6-5-|
-4-5-5-4-3-4-555--4-5-5-4-3-|
 . . . . . . ...  . . . . .

Riff 11 2:02
Both Guitars
|------------------------------------------------------ --|
|----------------------------------------------------- ---|
|---------------------------------------------------- ----|
|---------------------------------------------------------|
|-7-8-6b^r--7-8-5b^r--------8-7--------------10-9---------|
|-5-6-4b^r--5-6-4b^r--5-6-5-----8-7-8--7-8-7------10-9-10-|
  . .       . .       . . . . . . . .  . . . .  . .  . .


Riff 12a 2:17
Both Guitars
|--------------------------------------------------|
|--------------------------------------------------|
|--------------------------------------------------|
|--------------------------------------------------|
|10-10-9-9-9-9-8-8-8-8-7-7-7-7-6-6-10-10-9-9-9-9-8-|
|--8--8-7-7-7-7-6-6-6-6-5-5-5-4-4----8--8-7-7-7-7--|
 . .. ............................ . .. ..........

Riff 12b 2:24
Both Guitars

|-------------------------------------------------|
|-------------------------------------------------|
|-7-7-6-6-6-6-5-5-5-5-4-4-4-4-3-3--7-7-6-6-6-6-5--|
|--5-5-4-4-4-4-3-3-3-3-2-2-2-2-1-1--5-5-4-4-4-4---|
|-------------------------------------------------|
|-------------------------------------------------|
  ................................ .............


Ending 2:30
Both Guitars
|----------------------------------------------------------------------|
|----------------------------------------------------------------------|
|----------------------------------------------------------------------|
|6666----6666------6666------9999-------6666----6666-------7-6-----6-5-|
|----7766----776655----776655----776655-----7766----776655-7-6-7-6-6-5-|
|--------------------------------------------------------------7-6-----|
                                                           . . . . . .

----------------------------------------------------------------|
----------------------------------------------------------------|
----------------------------------------------------------------|
6666----6666------6666------9999-------6666----6666-------7-6-7-|
----7766----776655----776655----776655-----7766----776655-7-6-7-|
----------------------------------------------------------------|
                                                          . . .

End.
Добавлено: 07.04.2012
Другие материалы по этой песне:
  • Аккорды и текст

Страница создана 07.04.2012
http://primanota.ru/gorgasm/lacerated-masturbation-chords.htm
Привет, Гость.
Предлагаем пройти революционный курс по гитаре.
Подарок от PrimaNota.Ru, забирай!