PrimaNota.ru - самый крупный в мире бесплатный архив песенных текстов, аккордов, табулатур и нот


Gorgasm - Disembodied - текст песни, таба, видео

Регистрация Запомнить меня
Войти через:  Facebook Google Twitter Vk Yandex Mail.ru

Gorgasm - Disembodied - текст песни, таба, видео

Печатать
Просмотров: 120
--- GORGASM ---
                              "Disembodied"
                     From album: "Stabwound Intercourse"
                     

NOTES:
 " - tremolo
tr.. - tremolo picking notes
 x - hard palm muting
 = - sustained note

h - hammer on              ~ - vibrato
p - pull off               b - bend string
^ - pinch harmonics        p.m. - palm mute 
x - muted note             t - right hand tap
/ - slide up               \ - slide down

TUNE TO B 

[Intro]
-|-----------------|
-|-----------------|
-|-----------------|
-|-5-6-5-3-5-6-5-3-|
-|-5-6-5-3-5-6-5-3-|
-|-3-4-3-1-3-4-3-1-|
   . . . . . . . .

[Riff 1a]
-|-------------------------------------------------|
-|-------------------------------------------------|
-|-------------------------------------------------|
-|-----7"10"9"5"7"8"7"-----7"10"9"-----------------|
-|---------------------------------5-5-7-7-8-8-7-7-|
-|-5-5-----------------5-5---------3-3-5-5-6-6-5-5-|
   . .                 . .         . . . . . . . .

[Riff 1b]
-|---------------------------------------------|
-|---------------------------------------------|
-|-------------------------7"10"9"-------------|
-|-----7"10"9"5"7"8"7"-------------------------|
-|---------------------------------5--7--8--7--|
-|-5-5-----------------5-5---------3--5--6--5--|
   . .                 . .         .  .  .  .

[Riff 2]
-|---------------------------------------|-------------------|
-|---------------------------------------|-------------------|
-|---------------------------------------|-----5-------------|
-|-4-5-4-3----------4-5------------------|-4-5-5-3"2"1"------|
-|-4-5-4-3-2"1"4"3"-4-5-2"1"4"3"5"4"3"4"-|-4-5-3-------1"...-|
-|-2-3-2-1----------2-3------------------|-2-3---------------|
   . . . .          . .                    . . .

[Riff 3]                                [RIFF 2] [RIFF 3]
-|-------------------------------------|--------|--------|
-|-------------------------------------|--------|--------|
-|-----5-4------4-3------3-------------|--------|--------|
-|-5-4-5-4-55-4-4-3-44-3-3-3-3---------|--------|--(x2)--|
-|-5-4-3-2-55-4-2-1-44-3-1-3-3---------|--------|--------|
-|-3-2-----33-2-----22-1---1-1-1-1-1-1-|--------|--------|
   . . . . .. . . . .. . . . . . . . .

[Outro (x2)]        [RIff 4 (x4)]
-|-----------------|-----------------|
-|-----------------|-----------------|
-|-----------------|-----------------|
-|-7-----6---------|-7-----6---------|
-|-5-----4-----5---|-5-----4-----5-5-|
-|---4-4---4-4-3---|---4-4---4-4-3-3-|
     . .   . . .       . .   . . . .

[Riff 5 (x8)]
-|---------------------------------|
-|---------------------------------|
-|---------------------------------|
-|-----7-6-5-----------------------|
-|-----------6-5---6-6-7-7-5-5-6-6-|
-|-3-4-----------6-4-4-5-5-3-3-4-4-|
   . . . . . . . . . . . . . . . .

[Riff 6 (x6)]
-|---------------------------------|
-|---------------------------------|
-|---------------------------------|
-|---------5-4-----6-5-----5-4-----|
-|-----5-4-----6-5-----5-4-----5-4-|
-|-3-3-----------------------------|
   . . . . . . . . . . . . . . . .

[Riff 7 (x4)]
-|---------------------------------|---------------------------------|
-|---------------------------------|---------------------------------|
-|---------9-8----10-9-----9-8-----|---------------------------------|
-|-------------9-8----10-9-----9-8-|---------5-4-----6-5-----5-4-----|
-|-7-7-----------------------------|-----5-4-----6-5-----5-4-----5-4-|
-|-----7-6-------------------------|-3-3-----------------------------|
 | . . . . . . . . . . . . . . . . | . . . . . . . . . . . . . . . . |
-|---------------------------------|---------------------------------|
-|---------------------------------|---------------------------------|
-|---------------------------------|---------4-3-----5-4-----4-3-----|
-|--------10-9-----1110----10-9----|-----4-3-----5-4-----4-3-----4-3-|
-|-10109-8----10-9-----1110----10-9|-2-2-----------------------------|
-|---------------------------------|---------------------------------|
   . . . . . . . . . . . . . . . .   . . . . . . . . . . . . . . . . 

[Riff 8 (x7)]
-|-------------------------------------------------|
-|-------------------------------------------------|
-|-------------------------------------------------|
-|-------------------5-5-5-------------------------|
-|-5-5-5-8-8-8-7-7-7-3-3-3-5-5-5-8-8-8-7\4-4-4-4-4-|
-|-3-3-3-6-6-6-5-5-5-------3-3-3-6-6-6-5\2-2-2-2-2-|
   . . . . . . . . . . . . . . . . . .     . . . . 

[Riff 9]                             [RIFF 9]
-|-----------------------|-[Intro]-|----------|-[Intro]-|
-|-----------------------|---------|----------|---------|
-|-----------------------|---------|----------|---------|
-|-----------------------|---(x2)--|---(x4)---|---(x2)--|
-|------1/4-1-2-3-5------|---------|----------|---------|
-|-0"..-------0-1-3-[x3]-|---------|----------|---------|
              . . .

[Riff 10 (x2)]                                [Outro 2 (x2)]
-|--------------------|------------------|  -|-------------------------------|
-|--------------------|------------------|  -|-------------------------------|
-|--------------------|------------------|  -|-------------------------------|
-|-------2"-------3---|-------2"------2"-|  -|-------------3-----------------|
-|----------------1---|------------------|  -|-5-5-6-6-5-5-1--5-5-6-6-5-5-3--|
-|-3"4"3"--3"4"3"-1---|-3"4"3"--3"4"3"---|  -|-3-3-4-4-3-3----3-3-4-4-3-3-1--|
                  .                            . . . . . . .  . . . . . . .

[Coda]
-|-------------------|-------------------|
-|-------------------|-------------------|
-|-------3-----------|-------3-----------|
-|-5-6-5-3--5-6-5-3--|-5-6-5-3--5-6-5-3--|
-|-5-6-5-1--5-6-5-3--|-5-6-5-1--5-6-5-3--|
-|-3-4-3----3-4-3-1--|-3-4-3----3-4-3-1--|
   . . . .  . . . .   . . . .   . . . .

END OF SONG
Добавлено: 09.06.2013
Другие материалы по этой песне:

Страница создана 19.05.2012
http://primanota.ru/gorgasm/disembodied-chords.htm
Привет, Гость.
Предлагаем пройти революционный курс по гитаре.
Подарок от PrimaNota.Ru, забирай!