PrimaNota.ru - самый крупный в мире бесплатный архив песенных текстов, аккордов, табулатур и нот


Gorgasm - Corpse Fiend - текст песни, таба, видео

Регистрация Запомнить меня
Войти через:  Facebook Google Twitter Vk Yandex Mail.ru

Gorgasm - Corpse Fiend - текст песни, таба, видео

Печатать
Просмотров: 156
                            --- G O R G A S M ---
                               "Corpse Fiend"
                     From album: "Masticate To Dominate"
                     Copyright Unique Leader Records 2003 ©
                     Version 1.0 (November'05)
                     Transcribed by: Yura Kowalchuk
                     Contact:[yura@grindcore.net]
                             [yura_kowalchuk@mail.ru]
                     HOME PAGE:http://www.blood-scrapes.nm.ru
                               http://brutaltabs.musica.mustdie.ru

                            TABULATURE LEGEND:
                   " - tremolo             h - hammer on
                   ~ - vibrato             \ - slide down
                   p - pull off            / - slide down
                  tr - tremolo picking     ^ - pinch harmonics
                   = - sustained note      b - bend string
                p.m. - palm muting         t - tapping

TUNING: B [B, E, A, d, gb, B]

[Riff 1 (x2)]
||--------------------------------|---------------------------------|
||o-------------------------------|---------------------------------|
||--------------------------------|---------------------------------|
||--------------------------------|---------------------------------|
||o-4--------4/5-3-4--------4/5-7-|-4--------4/5-3------------------|
||--2-222222-2/3-1-2-222222-2/3-5-|-2-222222-2/3-1-33333333-3-5-6~--|

-|-------------------------------|---------------------------------|
-|-------------------------------|---------------------------------|
-|-------------------------------|---------------------------------|
-|-------------------------------|---------------------------------|
-|-4--------4/5-3-4--------4/5-7-|-4--------4/5-3------------------|
-|-2-222222-2/3-1-2-222222-2/3-5-|-2-222222-2/3-1-33333333-3-5-6~--|

-|------------------||
-|-----------------o||
-|------------------||
-|------------------||
-|-----------------o||
-|-66666666-6-8-9~--||

[Outro 1]                         [Outro 2]
|---------------------------------|---------------------------------|
|---------------------------------|---------------------------------|
|---------------------------------|---------------------------------|
|---------------------------------|---------------------------------|
|---------------------------------|---------------------------------|
|-33333333-3-5-6~-66666666-6-8-9~-|-3-4-3-2-3-2-1-2-3-4-3-2-3-2-1-2-|
                                    . . . . . . . . . . . . . . . .

[Riff 2 (x2)]
||-----------------------------------|-----------------------------------|
||o----------------------------------|-----------------------------------|
||-----------------------------------|-----------------------------------|
||----------77777777--------88888888-|---------77777777------------------|
||o-----4444------------4444---------|-----4444--------------------------|
||--3333------------3333-------------|-3333-------------3-4-3-2-3-2-1-2--|
                                                        . . . . . . . .

-|----------------------------------|----------------------------------|
-|----------------------------------|----------------------------------|
-|----------------------------------|----------------------------------|
-|---------77777777--------88888888-|---------77777777-----------------|
-|-----4444------------4444---------|-----4444-------------------------|
-|-3333------------3333-------------|-3333-------------3-4-3-2-3-2-1-2-|
                                                        . . . . . . . .

------------------||
-----------------o||
------------------||
------------------||
-----------------o||
-3-4-3-2-3-2-1-2--||
 . . . . . . . .

[Riff 3]
|--------------------------------------------------|
|--------------------------------------------------|
|--------------------------------------------------|
|--------------------------------------------------|
|-5--6--5--4--5--4--5--6--7--6--5--6--5--4--5--4---|
|-3--4--3--2--3--2--3--4--5--4--3--4--3--2--3--2---|
  .  .  .  .  .  .  .  .  .  .  .  .  .  .  .  .

-|-----------------------------------------------|
-|-----------------------------------------------|
-|-----------------------------------------------|
-|-----------------------------------------------|
-|-5--6--5--4--5--4--5--6--7--6--5--6--5--4------|
-|-3--4--3--2--3--2--3--4--5--4--3--4--3--2------|
   .  .  .  .  .  .  .  .  .  .  .  .  .  .

[Riff 4]
|----------------------------------------------------------|
|----------------------------------------------------------|
|----------------------------------------------------------|
|----------------------------------------------------------|
|-3-3-4--3-3-2--3-3-2--3-3-4--5-5-4--3-3-4--3-3-2--3-3-2---|
|-5-5-6--5-5-4--5-5-4--5-5-6--7-7-6--5-5-6--5-5-4--5-5-4---|
  . . .  . . .  . . .  . . .  . . .  . . .  . . .  . . .

-|------------------------------------------------------|
-|------------------------------------------------------|
-|------------------------------------------------------|
-|------------------------------------------------------|
-|-3-3-4--3-3-2--3-3-2--3-3-4--5-5-4--3-3-4--3-3-2------|
-|-5-5-6--5-5-4--5-5-4--5-5-6--7-7-6--5-5-6--5-5-4------|
   . . .  . . .  . . .  . . .  . . .  . . .  . . .

                                 [Riff 5 (x6)]
|--------------------------------||---------------------------------||
|--------------------------------||o-------------------------------o||
|--------------------------------||---------------------------------||
|--------------------------------||---------------------------------||
|-----------------------------2--||o-----------------------------2-o||
|-1-3-4-1-4-3-2-3-1-3-4-1-4-3-1--||--1-3-4-1-4-3-2-3-1-3-4-1-4-3-1--||
| . . . . . . . . . . . . . .    |   . . . . . . . . . . . . . .     |
|--------------------------------||---------------------------------||
|--------------------------------||o-------------------------------o||
|--------------------------------||---------------------------------||
|--------------------------------||---------------------------------||
|-----------------------------2--||o-----------------------------2-o||
|-----------------------------1--||--1-3-4-1-4-3-2-3-1-3-4-1-4-3-1--||
                                     . . . . . . . . . . . . . .

[Riff 6 (x2)]
||------------------------------------------------------------|
||o-----------------------------------------------------------|
||----------------------------------6666666666666666----------|
||------------------------------------------------------------|
||o-44444444444444444444444455555555----------------55555555--|
||------------------------------------------------------------|
|                                                            |
||------------------------------------------------------------|
||o-----------------------------------------------------------|
||----------------------------------6666666666666666----------|
||------------------------------------------------------------|
||o-44444444444444444444444455555555----------------55555555--|
||------------------------------------------------------------|

-|-----------------------------------------------------------|
-|-----------------------------------------------------------|
-|---------------------------------6666666666666666----------|
-|-----------------------------------------------------------|
-|-44444444444444444444444455555555----------------55555555--|
-|-----------------------------------------------------------|
 |                                                          |
-|-----------------------------------------------------------|
-|-----------------------------------------------------------|
-|---------------------------------66666666------------------|
-|-----------------------------------------^-----------------|
-|-44444444444444444444444455555555--------5~~~~~~~~~~~~~~~--|
-|-----------------------------------------------------------|

--|--------------------------------------------------[x2]-|--||
--|-------------------------------------------------------|-o||
--|------------------------------6666666666666666---------|--||
--|-------------------------------------------------------|--||
--|-4~~~---------4444444455555555----------------55555555-|-o||
--|-------------------------------------------------------|--||
  |                                                       |   |
--|--------------------------------------------------[x2]-|--||
--|-------------------------------------------------------|-o||
--|-------------------------------------------------------|--||
--|-------------------------------------------------------|--||
--|-------------------------------------------------------|-o||
--|-2~~~---------2---3---6~~-----5~~-------------3~~------|--||

[RIFF 1 (x2)] [OUTRO 1]

[Riff 7 (x2)]
||------------------------------------|-----------------------------------|
||o-----------------------------------|-----------------------------------|
||------------------------------------|-----------------------------------|
||----------66666666---------66556688-|---------666666666655668899886655--|
||o-----------------------------------|-----------------------------------|
||--5-4-3-4----------5-4-3-4----------|-5-4-3-4---------------------------|
    . . . .          . . . .            . . . .

-|-----------------------------------|----------------------------------|
-|-----------------------------------|----------------------------------|
-|-----------------------------------|----------------------------------|
-|---------66666666---------66556688-|---------666666666655668899886655-|
-|-----------------------------------|----------------------------------|
-|-5-4-3-4----------5-4-3-4----------|-5-4-3-4--------------------------|
   . . . .          . . . .            . . . .

---------------------||
--------------------o||
-776677991010997766--||
---------------------||
--------------------o||
---------------------||

[Riff 8]
|-------------|-----------------------------------------|
|-------------|-----------------------------------------|
|-------------|-----------------------------------------|
|-------------|-----------------------------------------|
|-5--4--3--4--|-7-7-6--5--7-7-6--5--7-7-6--5--7-7-6--5--|
|-7--6--5--6--|-5-5-4--3--5-5-4--3--5-5-4--3--5-5-4--3--|
  .  .  .  .    . . .  .  . . .  .  . . .  .  . . .  .

---------------------|-------------|
---------------------|-------------|
---------------------|-------------|
---------------------|-------------|
-7-7-6--5--7-7-6--5--|-5--4--3--4--|
-5-5-4--3--5-5-4--3--|-7--6--5--6--|
 . . .  .  . . .  .    .  .  .  .

[RIFF 7 (x2)]

END OF SONG
Добавлено: 13.07.2012
Другие материалы по этой песне:

Страница создана 03.04.2012
http://primanota.ru/gorgasm/corpse-fiend-chords.htm
Привет, Гость.
Предлагаем пройти революционный курс по гитаре.
Подарок от PrimaNota.Ru, забирай!