PrimaNota.ru - самый крупный в мире бесплатный архив песенных текстов, аккордов, табулатур и нот


Gorgasm - Clitoral Circumcision - текст песни, таба, видео

Регистрация Запомнить меня
Войти через:  Facebook Google Twitter Vk Yandex Mail.ru

Gorgasm - Clitoral Circumcision - текст песни, таба, видео

Печатать
Просмотров: 134
--- GORGASM ---
                       "Clitoral Circumcision"
                  From album: "Stabwound Intercourse" [1999]


NOTES:
() - tremolo picking note
*  - tremolo picking notes
x - hard palm muting

h - hammer on              ~ - vibrato
p - pull off               b - bend string
^ - pinch harmonics        p.m. - palm mute 
x - muted note             t - right hand tap
/ - slide up               \ - slide down

Tune to B

Riff 1a
-|------------------|------------------|------------------|---------------|
-|------------------|------------------|------------------|---------------|
-|------------------|------------------|------------------|---------------|
-|------------------|------------------|------------------|---------------|
-|------------------|------------------|------------------|---------------|
-|-0000000044444444-|-0000334433333333-|-0000000044444444-|-3-4-6-4-3-4-6-|
                                                            . . . . . . .

Riff 1b
-|------------------|------------------|------------------|---------------|
-|------------------|------------------|------------------|---------------|
-|------------------|------------------|------------------|---------------|
-|------------------|------------------|------------------|---------------|
-|------------------|------------------|------------------|---------------|
-|-0000000044444444-|-0000334433333333-|-0000000044444444-|-6-4-3-4-6-4-6-|
                                                            . . . . . . .

RIFF 1a
RIFF 1b

Riff 2a
-|------------------|------------------|------------------|---------------|
-|------------------|------------------|------------------|---------------|
-|------------------|------------------|------------------|---------------|
-|---------99999999-|-----889988888888-|---------99999999-|---------------|
-|-77777777---------|-7777-------------|-77777777---------|---------------|
-|------------------|------------------|------------------|-3-4-6-4-3-4-6-|
 |                  |                  |                  | . . . . . . . |
 |                  |                  |                  |               |
-|------------------|------------------|------------------|---------------|
-|------------------|------------------|------------------|---------------|
-|------------------|------------------|------------------|---------------|
-|------------------|------------------|------------------|---------------|
-|------------------|------------------|------------------|---------------|
-|-0000000044444444-|-0000334433333333-|-0000000044444444-|-3-4-6-4-3-4-6-|
                                                            . . . . . . .

Riff 2b
-|------------------|------------------|------------------|---------------|
-|------------------|------------------|------------------|---------------|
-|------------------|------------------|------------------|---------------|
-|---------99999999-|-----889988888888-|---------99999999-|---------------|
-|-77777777---------|-7777-------------|-77777777---------|---------------|
-|------------------|------------------|------------------|-6-4-3-4-6-4-6-|
 |                  |                  |                  | . . . . . . . |
 |                  |                  |                  |               |
-|------------------|------------------|------------------|---------------|
-|------------------|------------------|------------------|---------------|
-|------------------|------------------|------------------|---------------|
-|------------------|------------------|------------------|---------------|
-|------------------|------------------|------------------|---------------|
-|-0000000044444444-|-0000334433333333-|-0000000044444444-|-6-4-3-4-6-4-6-|
                                                            . . . . . . .

RIFF 2a
RIFF 2b

Riff 3
-|-----------------|---------------|-----------------|
-|-----------------|---------------|-----------------|
-|-----------------|---------------|-----------------|
-|-----------------|-------------6-|-----------------|
-|-555-7-6-444-6-5-|-555-7-6-4-----|-555-7-6-444-6-5-|
-|-----7-6-----6-5-|-----7-6---6---|-----7-6-----6-5-|
   ...     ...       ...             ...     ...

RIFF 1a
RIFF 1b
RIFF 1a
RIFF 1b
RIFF 2a
RIFF 2b
RIFF 2a
RIFF 2b
RIFF 3

Riff 4a
-|-----------------------------------------|-------------------------------------|
-|-----------------------------------------|-------------------------------------|
-|-----------------------------------------|-------------------------------------|
-|------8-11------8-11------8-11------8-11-|-----7-10-----7-10-----7-10-----7-10-|
-|-7-10------7-10------7-10------7-10------|-6-9------6-9------6-9------6-9------|
-|-----------------------------------------|-------------------------------------|
 |                                         |                                     |
-|-----------------------------------------|-------------------------------------|
-|-----------------------------------------|-------------------------------------|
-|-----------------------------------------|-------------------------------------|
-|------8-11------8-11------8-11------8-11-|-----7-10-----7-10-----7-10-----7-10-|
-|-7-10------7-10------7-10------7-10------|-6-9------6-9------6-9------6-9------|
-|-----------------------------------------|-------------------------------------|

Riff 4b
-|-----------------------------------------|-------------------------------------|
-|-----------------------------------------|-------------------------------------|
-|-----------------------------------------|-------------------------------------|
-|------8-11------8-11------8-11------8-11-|-----7-10-----7-10-----7-10-----7-10-|
-|-7-10------7-10------7-10------7-10------|-6-9------6-9------6-9------6-9------|
-|-----------------------------------------|-------------------------------------|
 |                                         |                                     |
-|-----------------------------------------|-------------------------------------|
-|-----------------------------------------|-------------------------------------|
-|-----------9-12----------------9-12------|-------------------------------------|
-|------8-11------8-11------8-11------8-11-|-11-8-----11-8-----11-8-----11-8-----|
-|-7-10----------------7-10----------------|-----10-7-----10-7-----10-7-----10-7-|
-|-----------------------------------------|-------------------------------------|

Riff 4c
-|-----------------------------------------|-------------------------------------|
-|-----------------------------------------|-------------------------------------|
-|-----------------------------------------|-------------------------------------|
-|-11-8------11-8------11-8------11-8------|-----7-10-----7-10-----7-10-----7-10-|
-|------10-7------10-7------10-7------10-7-|-6-9------6-9------6-9------6-9------|
-|-----------------------------------------|-------------------------------------|
 |                                         |                                     |
-|-----------------------------------------|-------------------------------------|
-|-----------------------------------------|-------------------------------------|
-|-----------9-12----------------9-12------|-------------------------------------|
-|------8-11------8-11------8-11------8-11-|-11-8----11-8-----11-8-----11-8------|
-|-7-10----------------7-10----------------|-----10-7----10-7------10-7-----10-7-|
-|-----------------------------------------|-------------------------------------|

Riff 5 (x3)
-|--------------------|
-|--------------------|
-|--------------------|
-|--------------------|
-|-7----7----4-5-6----|
-|-5-44-5-44-2-3-4-33-|
     ..   ..       ..

Outro 1
-|-----------|
-|-----------|
-|-----------|
-|-----------|
-|-7----7----|
-|-5-44-5-44-|
     ..   ..

Riff 6a (x3)         Riff 6b
-|------------------|--------------------|
-|------------------|--------------------|
-|------------------|--------------------|
-|------------------|--------------------|
-|-4455778877667766-|-44557788-7----7----|
-|-2233556655445544-|-22335566-5-44-5-44-|
   ................   ........   ..   ..

RIFF 6a (x3) + RIFF 6b

Riff 7a                     Riff 7b
-|-------------------------|--------------------------|
-|-------------------------|--------------------------|
-|-------------------------|------------(9)-h-(9)-----|
-|----(11)(10)(11)(10)-----|----(11)(10)---------(10)-|
-|-(9)----------------(12)-|-(9)----------------------|
-|-------------------------|--------------------------|

RIFF 7a
OUTRO 1
RIFF 7a
RIFF 7b
RIFF 7a
OUTRO 1

Riff 8 (x4)
-|-------------|---------------------------------|
-|-------------|---------------------------------|
-|-------------|---------------------------------|
-|-----(10)(9)-|---------------------------------|
-|-7777--------|---------------------------------|
-|-------------|-4-4-4-4-5-5-5-5-7-7-7-7-7-7-7-7-|
 |             | . . . . . . . . . . . . . . . . |
-|-------------|---------------------------------|
-|-------------|---------------------------------|
-|-------------|---------------------------------|
-|-------------|---------------------------------|
-|-2-----------|---------------------------------|
-|-0-----------|-4-4-4-4-5-5-5-5-7-7-7-7-7-7-7-7-|
                 . . . . . . . . . . . . . . . .

Riff 9 (x2)
-|-----------------------|---------------------|
-|-----------------------|---------------------|
-|-----------------------|---------------------|
-|-----------------------|---------------------|
-|-----------------------|---------------------|
-|-1-0-0-1-0-0-1-0-1-0-1-|-1-0-0-1-0-0-1-0-3-0-|
   . . . . . . . . . . .   . . . . . . . . . .

Riff 10a
-|-------------------|----------------------------|
-|-------------------|----------------------------|
-|-------------------|----------------------------|
-|---9-10---9-10---9-|---9-10---9-10---9----9---9-|
-|-7------7------8---|-7------7------8---10---8---|
-|-------------------|----------------------------|
 |                   |                            |
-|-------------------|----------------------------|
-|-------------------|----------------------------|
-|-------------------|----------------------------|
-|-2-----------------|----------------------------|
-|-2-----------------|----------------------------|
-|-0-----------------|----------------------------|

RIFF 8 (x2)

Riff 10b
-|-------------------|----------------------------|
-|-------------------|----------------------------|
-|-------------------|----------------------------|
-|---9-10---9-10---9-|---9-10---9-10---9----9---9-|
-|-7------7------8---|-7------7------8---10---8---|
-|-------------------|----------------------------|
 |                   |                            |
-|-------------------|----------------------------|
-|-------------------|----------------------------|
-|-------------------|----------------------------|
-|-3-----------------|----------------------------|
-|-1-----------------|----------------------------|
-|-------------------|----------------------------|

RIFF 10a
RIFF 10b

ENDING:
|-------------------|-----|
|-------------------|-----|
|=GTR1=/--Riff-9--\=|-----|
|=GTR2=\--Riff-10-/=|-----|
|-------------------|-3-3-|
|-------------------|-1-1-|
                      . .

END OF SONG
Добавлено: 11.11.2013
Другие материалы по этой песне:
  • Аккорды и текст

Страница создана 13.07.2012
http://primanota.ru/gorgasm/clitoral-circumcision-chords.htm
Привет, Гость.
Предлагаем пройти революционный курс по гитаре.
Подарок от PrimaNota.Ru, забирай!