PrimaNota.ru - самый крупный в мире бесплатный архив песенных текстов, аккордов, табулатур и нот


Gorgasm - Bleeding Profusely - текст песни, таба, видео

Регистрация Запомнить меня
Войти через:  Facebook Google Twitter Vk Yandex Mail.ru

Gorgasm - Bleeding Profusely - текст песни, таба, видео

Печатать
Просмотров: 98
--- G O R G A S M ---
                            "Bleeding Profusely"
                     From album: "Bleeding Profusely"


                            TABULATURE LEGEND:
                   " - tremolo             h - hammer on
                   ~ - vibrato             \ - slide down
                   p - pull off            / - slide down
                  tr - tremolo picking     ^ - pinch harmonics
                   = - sustained note      b - bend string
                p.m. - palm muting         t - tapping

TUNING: B [B, E, A, d, g, B]

 [Riff 1]
||-------------------------|-----------------------------|
||-------------------------|-----------------------------|
||-------------------------|-----------------------------|
||-6-5-4--------------66-5-|-6-5-4---------777766665555--|
||-4-3-2--------------44-3-|-4-3-2-----------------------|
||-4-3-2-555544443333-44-3-|-4-3-2-55554444--------------|
 | . . .              .. . | . . .                      |
||-------------------------|-----------------------------|
||-------------------------|-----------------------------|
||-------------------------|-----------------------------|
||-6-5-4--------------66-5-|-6-5-4---------777766665555--|
||-4-3-2--------------44-3-|-4-3-2-----------------------|
||-4-3-2-555544443333-44-3-|-4-3-2-55554444--------------|
   . . .              .. .   . . .

-|-------------------------|-------------------|
-|-------------------------|-------------------|
-|-------------------------|-------------------|
-|-6-5-4--------------66-5-|-6-5-4-7-----------|
-|-4-3-2--------------44-3-|-4-3-2-5-----------|
-|-4-3-2-555544443333-44-3-|-4-3-2-5-----------|
 | . . .              .. . | . . . .          |
-|-------------------------|-------------------|
-|-------------------------|-------------------|
-|-------------------------|-------------------|
-|-6-5-4--------------66-5-|-6-5-4-7-----------|
-|-4-3-2--------------44-3-|-4-3-2-5-----------|
-|-4-3-2-555544443333-44-3-|-4-3-2-5-----------|
   . . .              .. .   . . . .


-|-------------------------|-----------------------------|
-|-------------------------|-----------------------------|
-|-------------------------|---------------777766665555--|
-|-6-5-4--------------66-5-|-6-5-4-----------------------|
-|-4-3-2--------------44-3-|-4-3-2-----------------------|
-|-4-3-2-555544443333-44-3-|-4-3-2-55554444--------------|
 | . . .              .. . | . . .                      |
-|-------------------------|-----------------------------|
-|-------------------------|-----------------------------|
-|-------------------------|-----------------------------|
-|-6-5-4--------------66-5-|-6-5-4---------777766665555--|
-|-4-3-2--------------44-3-|-4-3-2-----------------------|
-|-4-3-2-555544443333-44-3-|-4-3-2-55554444--------------|
   . . .              .. .   . . .

-|-------------------------|---------|-----------------||
-|-------------------------|---------|-----------------||
-|-------------------------|---------|-----------------||
-|-6-5-4--------------66-5-|-6-5-4-7-|-----------------||
-|-4-3-2--------------44-3-|-4-3-2-5-|-----------------||
-|-4-3-2-555544443333-44-3-|-4-3-2-5-|-----------------||
 | . . .              .. . | . . . . |                  |
-|-------------------------|---------|-----------------||
-|-------------------------|---------|-----------------||
-|-------------------------|---------|-----------------||
-|-6-5-4--------------66-5-|-6-5-4-7-|-----------------||
-|-4-3-2--------------44-3-|-4-3-2-5-|-7-8-7-2-6-7-7-7-||
-|-4-3-2-555544443333-44-3-|-4-3-2-5-|-5-6-5-0-4-5-5-5-||
   . . .              .. .   . . . .   . . . . . . . .

[Riff 2] /both guitars/
||----------------------------------|-----------------------------------|
||----------------------------------|-----------------------------------|
||----------------------------------|-----------------------------------|
||-------------8888-----------------|-------------7777------------------|
||-----66665555-----7-8-7-2-6-7-7-7-|-----66665555-----7-8-7-2-6-7-7-7--|
||-5555-------------5-6-5-0-4-5-5-5-|-5555-------------5-6-5-0-4-5-5-5--|
                    . . . . . . . .                    . . . . . . . .

-|----------------------------------|----------------------------------||
-|----------------------------------|----------------------------------||
-|----------------------------------|----------------------------------||
-|-------------8888-----------------|-------------88887777----55555555-||
-|-----66665555-----7-8-7-2-6-7-7-7-|-----66665555--------8888---------||
-|-5555-------------5-6-5-0-4-5-5-5-|-5555-----------------------------||
                    . . . . . . . .

[Riff 3]
||-------------------|-----------------------------------|
||-------------------|-----------------------------------|
||-------------------|-----------------------------------|
||-------------------|-------------88887777----55555555--|
||-3-4-5-4-6-5-4-^---|-----66665555--------8888----------|
||-1-2-3-2-4-3-2-3~~-|-5555------------------------------|
   . . . . . . .

-|-----------------------------------------------------|
-|-----------------------------------------------------|
-|-----------------------------------------------------|
-|-------------------------------88887777----55555555--|
-|-44-55-6--55-66-7------66665555--------8888----------|
-|-22-33-4--33-44-5--5555------------------------------|
   .. ..    .. ..

-|-------------------|----------------------------------||
-|-------------------|----------------------------------||
-|-------------------|----------------------------------||
-|-------------------|-------------88887777----55555555-||
-|-3-4-5-4-6-5-4-^---|-----66665555--------8888---------||
-|-1-2-3-2-4-3-2-3~~-|-5555-----------------------------||
   . . . . . . .

[Riff 4 (x2)]
||---------------------------------------------||
||o-------------------------------------------o||
||---------------------------------------------||
||---------------------------------------------||
||o-44-55-6--55-66-7--88-77-6--77-66-5--66-55-o||
||--22-33-4--33-44-5--66-55-4--55-44-3--44-33--||
    .. ..    .. ..    .. ..    .. ..    .. ..

[Riff 5 (x2)]
||-----------------------------------|--------------------------|
||o----------------------------------|--------------------------|
||-----------------------------------|--------------------------|
||-----------------------------------|--------------------------|
||o--------------------------9-9-8-8-|--------------------------|
||--333366664444444433336666-7-7-6-6-|-333366664444444433336666-|
                             . . . .

--------------------------||
-------------------------o||
--------------------------||
--------------------------||
-9-9-8-8-6-6-7-7-7-7-6-6-o||
-7-7-6-6-4-4-5-5-5-5-4-4--||
 . . . . . . . . . . . .

[Riff 6a]
||----------------------------------|----------------------------------||
||----------------------------------|----------------------------------||
||----------------------------------|----------------------------------||
||--------------------------5"------|-------------------------8"-------||
||-----4"--7"-----------7"------4"--|-----4"--7"------7"--10"-----10"--||
||-3"----------6"......-------------|-3"----------6"-------------------||

[Riff 6b]
||----------------------------------|----------------------------------||
||----------------------------------|----------------------------------||
||--------------------------7"------|-------------------------10"------||
||-----6"--9"-----------9"------6"--|-----6"--9"------9"--12"-----12"--||
||-5"----------8"......-------------|-5"----------8"-------------------||
||----------------------------------|----------------------------------||
 |                                  |                                   |
||----------------------------------|----------------------------------||
||----------------------------------|----------------------------------||
||----------------------------------|----------------------------------||
||--------------------------5"------|-------------------------8"-------||
||-----4"--7"-----------7"------4"--|-----4"--7"------7"--10"-----10"--||
||-3"----------6"......-------------|-3"----------6"-------------------||

[Riff 7 (x4)]
||------------------------------------||
||o-----------------------------------||
||------------------------------------||
||------------------------------------||
||o-7-10-6-9---------7-6-5-5-7-6-5-6-o||
||-----------8".....-5-4-3-3-5-4-3-4--||
    . .  . .         . . . . . . . .

[RIFF 6b]

[Outro]
||---------------------------------------|
||---------------------------------------|
||---------------------------------------|
||------------------------7-10-----------|
||--------------------6-9------7-10------|
||----------------------------------8-11-|
 |                    . . . .  . .  . .  |
||---------------------------------------|
||---------------------------------------|
||---------------------------------------|
||-----7-10---------------7-10-----------|
||-6-9------7-10------6-9------7-10------|
||---------------8-11---------------8-11-|
   . . . .  . .  . .  . . . .  . .  . .

[Riff 8 (x4)]
||-----------------------------------------||
||o---------------------------------------o||
||-----------------------------------------||
||------7-10---------------7-10------------||
||o-6-9------7-10------6-9------7-10------o||
||----------------8-11---------------8-11--||
 |  . . . .  . .  . .  . . . .  . .  . .    |
||-----------------------------------------||
||o---------------------------------------o||
||-----------------------------------------||
||------7-10---------------7-10------------||
||o-6-9------7-10------6-9------7-10------o||
||----------------8-11---------------8-11--||
    . . . .  . .  . .  . . . .  . .  . .

[Riff 9] /both gutiars/
||---------------------------------|-------------------------------------|
||---------------------------------|-------------------------------------|
||---------------------------------|-------------------------------------|
||---------------------4-7---------|---------------------7-10------------|
||-----1-4---------3-6-----4-7-----|-----1-4---------6-9------7-10-------|
||-3-6-----3-6-2-5-------------5-8-|-3-6-----3-6-2-5---------------8-11--|
   . . . . . . . . . . . . . . . .   . . . . . . . . . . . .  . .  . .

-|---------------------------------|-----------------||
-|---------------------------------|-----------------||
-|---------------------------------|-----------------||
-|---------------------4-7---------|-----------------||
-|-----1-4---------3-6-----4-7-----|-----1-4---------||
-|-3-6-----3-6-2-5-------------5-8-|-3-6-----3-6-2-5-||
   . . . . . . . . . . . . . . . .   . . . . . . . .

[Ending part]]
||-------------------------|-----------------------------|
||-------------------------|-----------------------------|
||-------------------------|-----------------------------|
||-6-5-4--------------66-5-|-6-5-4---------777766665555--|
||-4-3-2--------------44-3-|-4-3-2-----------------------|
||-4-3-2-555544443333-44-3-|-4-3-2-55554444--------------|
 | . . .              .. . | . . .                      |
||-------------------------|-----------------------------|
||-------------------------|-----------------------------|
||-------------------------|-----------------------------|
||-6-5-4--------------66-5-|-6-5-4---------777766665555--|
||-4-3-2--------------44-3-|-4-3-2-----------------------|
||-4-3-2-555544443333-44-3-|-4-3-2-55554444--------------|
   . . .              .. .   . . .

-|-------------------------|------------------||
-|-------------------------|------------------||
-|-------------------------|------------------||
-|-6-5-4--------------66-5-|-6-5-4-7----------||
-|-4-3-2--------------44-3-|-4-3-2-5----------||
-|-4-3-2-555544443333-44-3-|-4-3-2-5----------||
 | . . .              .. . | . . . .           |
-|-------------------------|------------------||
-|-------------------------|------------------||
-|-------------------------|------------------||
-|-6-5-4--------------66-5-|-6-5-4-7----------||
-|-4-3-2--------------44-3-|-4-3-2-5----------||
-|-4-3-2-555544443333-44-3-|-4-3-2-5----------||
   . . .              .. .   . . . .

END OF SONG
Добавлено: 22.10.2013
Другие материалы по этой песне:

Страница создана 03.05.2012
http://primanota.ru/gorgasm/bleeding-profusely-chords.htm
Привет, Гость.
Предлагаем пройти революционный курс по гитаре.
Подарок от PrimaNota.Ru, забирай!