PrimaNota.ru - самый крупный в мире бесплатный архив песенных текстов, аккордов, табулатур и нот


Gorerotted - Zombie Graveyard Rape Bonanza - текст песни, таба, видео

Регистрация Запомнить меня
Войти через:  Facebook Google Twitter Vk Yandex Mail.ru

Gorerotted - Zombie Graveyard Rape Bonanza - текст песни, таба, видео

Печатать
Просмотров: 128
TUNING: D [D, G, C, F, A, D]

[Riff 1 (x4)]
-|-------------------------|
-|-------------------------|
-|-------------------------|
-|-------------------------|
-|-4--3--4--3------2-----2-|
-|-2--1--2--1--1h4---1h4---|
   .  .  .  .

[Riff 2]
-|-------------------------------------------------|-------------|
-|-------------------------------------------------|-------------|
-|-------------------------------------------------|-------------|
-|----------------------------------------4-----4--|-------------|
-|-4--3--4--3-----2"----2"-4--3--4--3--3--2--3--2--|-4--3--4--3--|
-|-2--1--2--1--1"----1"----2--1--2--1--1-----1-----|-2--1--2--1--|
                                       .  .  .  .

-------------------------------------|
-------------------------------------|
-------------------------------------|
-------------------------------------|
----2"----2"-4--3--4--3------2-----2-|
-1"----1"----2--1--2--1--1h4---1h4---|

[Riff 3]
-|----------------[x8]-|----------------[x4]-|----------------[x4]-|
-|---------------------|---------------------|---------------------|
-|---------------------|-------------4----5--|---------------------|
-|-------------4----5--|---2h5p2-----2----3--|-------------4----5--|
-|---2h5p2-----2----3--|-0-------0-0----0----|---2h5p2-----2----3--|
-|-0-------0-0----0----|---------------------|-0-------0-0----0----|
   .       . .    .      .       . .    .      .       . .    .

[Riff 4 (x4)]
-|-------------------------------------|
-|-------------------------------------|
-|-------------------------------------|
-|-------------------------------------|
-|------5"..-----4\3------5"..-----4\3-|
-|-2"..------0-1-2\1-2"..------0-1-2\1-|
             . .               . .

{Riff 5]                    [Outro]
-|--------------------[x4]-|------------------------|
-|-------------------------|------------------------|
-|-------------------------|------------------------|
-|-------------------------|------------------------|
-|-2"-5"-------1"-4"-------|-2"-5"-------1"-4"-3----|
-|-------2"-5"-------1"-4"-|-------2"-5"-------1----|
                                               .

[RIFF 5 (x4)] [RIFF 4 (x4)]

[Riff 6 (x8)]
-|---------------------------------|
-|---------------------------------|
-|---------------------------------|
-|---------4-------3-----3---3/4\3-|
-|-2-------2-------1-----1---1/2\1-|
-|-0---0-2-----0-1-----0---0-------|
       . .     . .     .   .

[Riff 7a  (x2)]
-|-----------------------------------------|
-|-----------------------------------------|
-|-----------------------------------------|
-|-----------------------------------------|
-|-------------2-2-2-2-------------2-2-2-2-|
-|-4h7p4-3h4p3-0-0-0-0-2h5p2-1h2p1-0-0-0-0-|
               . . . .             . . . .

[Riff 7b (x2)]
-|-------------------------------------|
-|-------------------------------------|
-|-------------------------------------|
-|-------------------------------------|
-|-----------2-2-2-2-----------2-2-2-2-|
-|-4tr7-3tr4-0-0-0-0-2tr5-1tr2-0-0-0-0-|
             . . . .           . . . .

[Outro 2]
-|----------------------------------------------------|
-|----------------------------------------------------|
-|----------------------------------------------------|
-|----------------------------------------------------|
-|-2"-5"-------1"-4"-------2"-5"-------1"-4"-3--------|
-|-------2"-5"-------1"-4"-------2"-5"-------1--------|
                                             .

[RIFF 5 (x8)] [RIFF 3]

[Ending]
-|--------------------------------|
-|--------------------------------|
-|--------------------------------|
-|-5----------------------2====\--|
-|-3---------2~-4~--------2====\--|
-|------------------3~~---0====\--|
 |(Rhythm on bottom)              |
-|--------------------------------|
-|--------------------------------|
-|-5---------4~-6~----------------|
-|------------------5~~---2====\--|
-|------------------------2====\--|
-|------------------------0====\--|


END OF SONG
Добавлено: 12.07.2012
Другие материалы по этой песне:
  • Аккорды и текст

Страница создана 08.04.2012
http://primanota.ru/gorerotted/zombie-graveyard-rape-bonanza-chords.htm
Привет, Гость.
Предлагаем пройти революционный курс по гитаре.
Подарок от PrimaNota.Ru, забирай!