PrimaNota.ru - самый крупный в мире бесплатный архив песенных текстов, аккордов, табулатур и нот


Gorerotted - To Catch A Killer - таба, видео

Регистрация Запомнить меня
Войти через:  Facebook Google Twitter Vk Yandex Mail.ru

Gorerotted - To Catch A Killer - таба, видео

Печатать
Просмотров: 223
Band: Gorerotted
Album: Only Tools And Corpses
Song: To Catch A Killer
Record Label: Metal Blade
Tuning: D G C F A D

------------------|
------------------|
------------------|
-------8-7--------|
-2-8-7-6-5-8-7-3--|
-0-6-5-----6-5-1--|X4
Let Notes Ring

------------------|
------------------|
------------------|
-------1-0--------|
---1-0-----1-0----|
-0-------------1--|X2
trem............

------------------|
------------------|
------------------|
-------8-7--------|
-2-8-7-6-5-8-7-3--|
-0-6-5-----6-5-1--|X4
Let Notes Ring

------------------------------------------------------------------|
------------------------------------------------------------------|
------------------------------------------------------------------|
------------------------------------------------------------------|
-2h3----3h4-------------------------2h3----3h4-22-2-2-2-2-2-2-2-2-|
----1h2-----00--*can't catch me*-00----1h2-----00-0-0-0-0-0-0-0-0-|
         pm ..                 pm..          pm.. . . . . . . . .

------------------------------------------------------------|
------------------------------------------------------------|
------------------------------------------------------------|
------------------------------------------------------------|
-2h3----3h4----2h3----3h4----2h3----3h4----2-2-2-2-2-2-2-2--|
----1h2-----00----1h2-----00-----1h3----00-0-0-0-0-0-0-0-0--|X3
          pm..          pm..          pm.. . . . . . . . .
------------------|
------------------|
------------------|
------------------|
-----3-------3-6--|
-0-5---2-0-5------|X4
trem.............

------------------------------------------------------------|
------------------------------------------------------------|
------------------------------------------------------------|
------------------------------------------------------------|
-2h3----3h4----2h3----3h4----2h3----3h4----2-2-2-2-2-2-2-2--|
----1h2-----00----1h2-----00-----1h3----00-0-0-0-0-0-0-0-0--|X2
          pm..          pm..          pm.. . . . . . . . .

------------------|
------------------|
------------------|
------------------|
-----3-------3-6--|
-0-5---2-0-5------|X4
trem.............


------------------|
------------------|
------------------|
------------------|
-------5-------7--|
-6-0-6---6-0-6----|X3
trem.............

------------------|
------------------|
------------------|
-------7-------9--|
-8---8-5-8---8-7--|
-6-0-6---6-0-6----|
pm . .   . . .

------------------|
------------------|
------------------|
------------------|
-------5-------7--|
-6-0-6---6-0-6----|X3
trem.............

------------------|
------------------|
------------------|
-------7-------9--|
-8---8-5-8---8-7--|
-6-0-6---6-0-6----|
pm . .   . . .

------------------|
------------------|
------------------|
-----5-------5-8--|
-2-7-3-4-2-7-3-6--|
-0-5---2-0-5-3-6--|X3

----------------|
----------------|
----------------|
-----5-------5--|
-2-7-3-4-2-7-3--|
-0-5---2-0-5-3--|


------------------|
------------------|
------------------|
-------8-7--------|
-2-8-7-6-5-8-7-3--|
-0-6-5-----6-5-1--|X4
Let Notes Ring

------------------|
------------------|
------------------|
-------1-0--------|
---1-0-----1-0----|
-0-------------1--|X2
trem............

------------------|
------------------|
------------------|
-------8-7--------|
-2-8-7-6-5-8-7-3--|
-0-6-5-----6-5-1--|X2

--------------------------------------|
--------------------------------------|
--------------------------------------|
--------------------------------------|
-7*trill*8---------6*trill*7----------|
-----------0-1-4-3-----------0-1-4-3--|
           trem...           .......

--------------------------------------|
--------------------------------------| (6)=guitar 2
--------------------------------------|
------------------(6)-----(7)---------|
-7*trill*8---------6*trill*7-2-3-6-5--|
-----------2-3-6-5-----------0-1-4-3--|
           trem...           pm. . .

--------------------------------------|
--------------------------------------|
--------------------------------------|
(7)-----(8)-------(6)-----(7)---------|
-7*trill*8---------6*trill*7----------|
-----------0-1-4-3-----------0-1-4-3--|
           trem...           .......

--------------------------------------|
--------------------------------------| (6)=guitar 2
--------------------------------------|
------------------(6)-----(7)---------|
-7*trill*8---------6*trill*7-2-3-6-5--|
-----------2-3-6-5-----------0-1-4-3--|
           trem...           pm. . .

------------------------------------------------------------------|
------------------------------------------------------------------|
------------------------------------------------------------------|
------------------------------------------------------------------|
---------4h7---------3h6-----2h5---------2h5---------2h5-----2h5--|
-0-3-6-3-----0-2-5-2-----1-4-----0-1-4-1-----0-1-4-1-----1-4------|X4
pm . . .     . . . .     . .     . . . .     . . . .     . .

--------------------------------------|
--------------------------------------|
--------------------------------------|
(7)-----(8)-------(6)-----(7)---------|
-7*trill*8---------6*trill*7----------|
-----------0-1-4-3-----------0-1-4-3--|
           trem...           .......

--------------------------------------|
--------------------------------------|
--------------------------------------|
------------------(6)-----(7)---------|
-7*trill*8---------6*trill*7-2-3-6-5--|
-----------2-3-6-5-----------0-1-4-3--|
           trem...           pm. . .

--------------------------------------|
--------------------------------------|
--------------------------------------|
(7)-----(8)-------(6)-----(7)---------|
-7*trill*8---------6*trill*7----------|
-----------0-1-4-3-----------0-1-4-3--|
           trem...           .......

--------------------------------------|
--------------------------------------|
--------------------------------------|
------------------(6)-----(7)---------|
-7*trill*8---------6*trill*7-2-3-6-5--|
-----------2-3-6-5-----------0-1-4-3--|
           trem...           pm. . .

------------------------------------------------------------------|
------------------------------------------------------------------|
------------------------------------------------------------------|
------------------------------------------------------------------|
---------4h7---------3h6-----2h5---------2h5---------2h5-----2h5--|
-0-3-6-3-----0-2-5-2-----1-4-----0-1-4-1-----0-1-4-1-----1-4------|X4
Добавлено: 15.06.2013
Другие материалы по этой песне:
  • Аккорды и текст

Страница создана 15.06.2013
http://primanota.ru/gorerotted/to-catch-a-killer-chords.htm
Привет, Гость.
Предлагаем пройти революционный курс по гитаре.
Подарок от PrimaNota.Ru, забирай!