PrimaNota.ru - самый крупный в мире бесплатный архив песенных текстов, аккордов, табулатур и нот


Gorerotted - Song Fuck Your Arse With Broken Glass - таба, видео

Регистрация Запомнить меня
Войти через:  Facebook Google Twitter Vk Yandex Mail.ru

Gorerotted - Song Fuck Your Arse With Broken Glass - таба, видео

Печатать
Просмотров: 130
Уроки эстрадного вокала в Санкт-Петербурге
 Song: Fuck Your Arse With Broken Glass
 Band: Gorerotted
Album: Only Tools And Corpses

Transcribed By: Scott Carlin
Email:          the_super_adventures@yahoo.ie

.  - palm mute           /  - slide up to 
\  - slide down to       ~  - vibrato 
h  - hammer on           b  - Bend 
p  - pull off            Suffixes for bend 
t  - tap                 f  - full bend    h - half bend 
^ - pinched harmonic    q  - quarter bend t - tap bend 
*  - see comment         H  - Hold bend    r release bend 
x  - Stuccatto           ~  - vibrato bend 
,  - slight palm mute    () - ghost note, sustained note 
"  - tremolo note        tr - Trill 

Tuning: Down 1 Step ( D G C F A D )

Riff 1a x4
||------------------------|-------------------||
||------------------------|-------------------||
||------------------------|-------------------||
||----3/4\3---------5/6\5-|---3/4\3-------5-6-||
||----1/2\1---4/5\4-3/4\3-|---1/2\1---3-4-3-4-||
||--0-------0-2/3\2-------|-0-------0-1-2-----||
    .       .               .       . . .

Riff 1b x4
||-------------------|---------------------||
||-------------------|---------------------||
||-------------------|---------------------||
||---3/4\3-----------|---3/4\3-------5/6\5-||
||---1/2\1-2-2-2-2-2-|---1/2\1-2-2-2-3/4\3-||
||-0-------0-0-0-0-0-|-0-------0-0-0-------||
   .       . . . . .   .       . . .

Riff 1a x4

Riff 2 x16
||-------------||
||-------------||
||-------------||
||-------------||
||-------4--1--||
||-6--3--------||
   "  "  "  "

Riff 3a x3
||---------------------|-----------------||
||---------------------|-----------------||
||---------------------|-----------------||
||---------------------|-----------------||
||---------------------|-----------------||
||-2tr5-3tr6-4tr7-5tr8-|-3-5-4-6-5-7-6-8-||
                         . . . . . . . .

Riff 3b x1
||---------------------||
||---------------------||
||---------------------||
||---------------------||
||---------------------||
||-2tr5-3tr6-4tr7-5tr8-||

Riff 2 x16
Riff 3a x3
Riff 3b x1

Riff 4a x16
||---------||
||---------||
||---------||
||---------||
||---7---5-||
||-0---0---||
   .   .

Riff 4b x16
||-----------------||
||-----------------||
||-----------------||
||-----------------||
||-8---7---7---6---||
||---0---0---0---0-||
     .   .   .   .

Riff 5 x8
||-------------------------------||
||-------------------------------||
||-------------------------------||
||-------------------------------||
||-----5-4-----6p5-6-7--6p5-6-7--||
||-4-5-----4-5-------------------||
   . . . . . .

Riff 6 x8
||------------------------||
||------------------------||
||------------------------||
||------------------------||
||-----7-0-6------7-0-6-3-||
||-4p0--------4p0---------||
   " " " " "  " " " " " "

Interlude x1
||-----||
||-----|| *This replaces the last
||-----||  note of riff 6 on the very
||-----||  last time you play it.
||-5~~-||
||-----||
   ^

Riff 3b x8

Riff 3c x7
||-----------------||
||-----------------||
||-----------------||
||-----------------||
||-----------------||
||-3-5-4-6-5-7-6-8-||
   . . . . . . . .

ENDING x1
||-----||
||-----||
||-----||
||-----||
||-2---||
||-0---||
   .

END
Добавлено: 26.02.2012
Другие материалы по этой песне:
  • Аккорды и текст

Страница создана 26.02.2012
http://primanota.ru/gorerotted/song-fuck-your-arse-with-broken-glass-chords.htm
Привет, Гость.
Предлагаем пройти революционный курс по гитаре.
Подарок от PrimaNota.Ru, забирай!