PrimaNota.ru - самый крупный в мире бесплатный архив песенных текстов, аккордов, табулатур и нот


Gorerotted - Only Tools And Corpses - текст песни, таба, видео

Регистрация Запомнить меня
Войти через:  Facebook Google Twitter Vk Yandex Mail.ru

Gorerotted - Only Tools And Corpses - текст песни, таба, видео

Печатать
Просмотров: 181
GOREROTTED - ONLY TOOLS AND CORPSES
Tuning C# G# C# F# A# D#

Intro
|------------------|
|-15--15--15--15---|
|-17hb17hb17hb17hb-|
|------------------|
|------------------|
|------------------|

Riff 1
|---------------------------------|
|---------------------------------|
|---------------------------------|
|---------------------------------|
|---------------------------------|
|-4-1-5-2-4-1-5-2-4-1-5-2-4-1-5-2-|

Chorus
|---------------------|
|---------------------|
|---------------------|
|-----4---------------|
|-1---2---2---0--0-2--|
|-1-------2---0--0-2--|
              .  .

Riff 2
|------------------------------------------------|
|------------------------------------------------|
|------------------------------------------------|
|-------------5--5--4-5-4------------------------|
|-1--1--1--1--3--3--2\3/2-1--1--1--1-----6---6-9-|
|-1--1--1--1--------------1--1--1--1--4-7---7----|
  .  .  .  .              .  .  .  .

|------------------------------------------------|
|------------------------------------------------|
|------------------------------------------------|
|-------------5--5--4-5-4------------------------|
|-1--1--1--1--3--3--2\3/2-1--1--1--1--4--7--4--7-|
|-1--1--1--1--------------1--1--1--1--4--7--4--7-|
  .  .  .  .              .  .  .  .

Riff 3
|-------------------------|
|-------------------------|
|-------------------------|
|----------6"-5"----------|
|-------------------6"-7"-|
|-1"-7"-6"-------6"-------|


Riff 4
|---------------------------------|
|---------------------------------|
|---------------------------------|
|-------------------------2-------|
|---1-0-1---1-0-1---1-0-1---1-0-1-|
|-1-------4-------5---------------|

Gtr II play this one octave higher the last four times


Outro
Gtr I
|---------------------|
|-15--15--15--15---15-|
|-17hb17hb17hb17hb17hb|
|---------------------|
|---------------------|
|---------------------|

Gtr II
|-------------------|
|-------------------|
|-------------------|
|-------------------|
|--1---1---1---1---1|
|--1---1---1---1---1|
   .   .   .   .   .

Song Structure:
Intro
Riff 1 X4
Chorus X4
Riff 1 X2
Riff 2 X2
Riff 3 X4
Riff 2 X2
Riff 3 X2
Riff 3 X2 (faster)
Chorus X8
Riff 4 X8
Riff 1 X2
Outro

END
Добавлено: 05.04.2012
Другие материалы по этой песне:
  • Аккорды и текст

Страница создана 05.04.2012
http://primanota.ru/gorerotted/only-tools-and-corpses-chords.htm
Привет, Гость.
Предлагаем пройти революционный курс по гитаре.
Подарок от PrimaNota.Ru, забирай!