PrimaNota.ru - самый крупный в мире бесплатный архив песенных текстов, аккордов, табулатур и нот


Gorerotted - Masticated By The Spasticated - текст песни, таба, видео

Регистрация Запомнить меня
Войти через:  Facebook Google Twitter Vk Yandex Mail.ru

Gorerotted - Masticated By The Spasticated - текст песни, таба, видео

Печатать
Просмотров: 144
Уроки эстрадного вокала в Санкт-Петербурге
 Song: Masticated By The Spasticated
 Band: Gorerotted
Album: Only Tools And Corpses

Transcribed By: Scott Carlin, corrected by Matt from Gorerotted
Email:          the_super_adventures@yahoo.ie

.  - palm mute           /  - slide up to
\  - slide down to       ~  - vibrato
h  - hammer on           b  - Bend
p  - pull off            Suffixes for bend
t  - tap                 f  - full bend    h - half bend
^ - pinched harmonic    q  - quarter bend t - tap bend
*  - see comment         H  - Hold bend    r release bend
x  - Stuccatto           ~  - vibrato bend
,  - slight palm mute    () - ghost note, sustained note
"  - tremolo note        tr - Trill

Tuning: Down 1 Step ( D G C F A D )

Riff 1a x4
||------------------------------------------||
||------------------------------------------||
||------------------------------------------||
||----------------------5-----6-3---2-----3-||
||-6/5\6---4/3\4---5/4----7-8-----4---4-5---||
||-4/3\4-0-2/1\2-0-3/2----------------------||
         .       .      " " " " " " " " " "

Riff 2 x16
||---------------||
||---------------||
||---------------||
||---------------||
||--------2h3p2--||
||--5p2h5--------||


Riff 3 x16
||-------------------||
||-------------------||
||-------------------||
||-------------------||
||----4---5---3---4--||
||--0-2-0-3-0-1-0-2--||
    .   .   .   .

Riff 2 x8
Riff 3 x8

Riff 4a x1
||-------------------------------------------||
||-------------------------------------------||
||-------------------------------------------||
||-------------------------------------------||
||--7h10p7-8-9-6h9p6-8-9-7h10p7-8-9-8-9-8-7--||
||---------6-7-------6-7--------6-7-6-7-6-5--||
           . .       . .        . . . . . .

Riff 4b x4
||---------------------------------------------|
||---------------------------------------------|
||---------------------------------------------|
||---------------------------------------------|
||--7h10p7-8-9-6h9p6-8-9-7h10p7-8-9-6h9p6-8-9--|
||---------6-7-------6-7--------6-7-------6-7--|
           . .       . .        . .       . .

  -------------------------------------------||
  -------------------------------------------||
  -------------------------------------------||
  -------------------------------------------||
  --7h10p7-8-9-6h9p6-8-9-7h10p7-8-9-8-9-8-7--||
  ---------6-7-------6-7--------6-7-6-7-6-5--||
           . .       . .        . . . . . .

Riff 5a x4
||-------------------------------||
||-------------------------------||
||---------------------3------3--||
||-----1-------1-----2------2----||
||---2---2---2---2-1------1------||
||-1-------1---------------------||
   " " " " " " " " " " "  " " "

Riff 5b x4
||-------------------------------||
||-------------------------------||
||---------------------3------3--||
||-----1-------1-----2------2----||
||---2---2---2---2-1------1------||
||-1-------1---------------------||
   " " " " " " " " " " "  " " "
   . . . . . . . .

Riff 4b x3
Riff 1a x4

Riff 1b x3
||---------------------||
||---------------------||
||---------------------||
||-5-----6-3---2-----3-||
||---7-8-----4---4-5---||
||---------------------||
   " " " " " " " " " "

ENDING x1
||---------------------||
||---------------------||
||-------------4-----5-||
||-5-----6-3-6-2-6-7-3-||
||---7-8-----4---4-5---||
||---------------------||
   " " " " " . . . .

END
Добавлено: 14.04.2012
Другие материалы по этой песне:

Страница создана 14.04.2012
http://primanota.ru/gorerotted/masticated-by-the-spasticated-chords.htm
Привет, Гость.
Предлагаем пройти революционный курс по гитаре.
Подарок от PrimaNota.Ru, забирай!