PrimaNota.ru - самый крупный в мире бесплатный архив песенных текстов, аккордов, табулатур и нот


Gorerotted - Her Gash I Did Slash - таба, видео

Регистрация Запомнить меня
Войти через:  Facebook Google Twitter Vk Yandex Mail.ru

Gorerotted - Her Gash I Did Slash - таба, видео

Печатать
Просмотров: 173
Уроки эстрадного вокала в Санкт-Петербурге
 Song: Her Gash I Did Slash
 Band: Gorerotted
Album: Only Tools And Corpses

Transcribed By: Scott Carlin, corrected by Matt from Gorerotted
Email:          the_super_adventures@yahoo.ie

.  - palm mute           /  - slide up to
\  - slide down to       ~  - vibrato
h  - hammer on           b  - Bend
p  - pull off            Suffixes for bend
t  - tap                 f  - full bend    h - half bend
^ - pinched harmonic    q  - quarter bend t - tap bend
*  - see comment         H  - Hold bend    r release bend
x  - Stuccatto           ~  - vibrato bend
,  - slight palm mute    () - ghost note, sustained note
"  - tremolo note        tr - Trill

Tuning: Down 1 Step ( D G C F A D )

Riff 1 x20
||---------------||
||---------------||
||---------------||
||---------------||
||--8\7----------||
||--6\5-0-0-0-0--||
        . . . .

Riff 2 x4
||-----------------||
||-----------------||
||-----------------||
||-----------------||
||-----------------||
||-0-7-3-7-6-3-6-3-||
   " " " " " " " "

Riff 3a x4
||-------------------------------||
||-------------------------------||
||---5-2-----4-2-----5-2-----4-2-||
||-2-----3-1-----2-2-----3-1-----||
||-------------------------------||
||-------------------------------||
                               .
Riff 2 x4
Riff 3a x2

Riff 3b x2
||--------------------------------||
||--------------------------------||
||---10-7-----9-6-----10-7----9-6-||
||-7------8-6-----7-7------8-6----||
||--------------------------------||
||--------------------------------||
                                .
Riff 3a x2

Riff 4 x4
||----------||
||----------||
||----------|| GTR 1
||----------||
||-2-2------||
||-0-0------||
|            |
||----------||
||----------||
||----------|| GTR 2
||----------||
||-----2-2--||
||-----0-0--||

Riff 1 x16

Riff 5 x40
||-----------------||
||-----------------||
||-----------------||
||-----------------||
||-6\5-2-5-2-5-2-5-||
||-4\3-0-3-0-3-0-3-||
       . . . . . .

END
Добавлено: 16.05.2012
Другие материалы по этой песне:
  • Аккорды и текст

Страница создана 16.05.2012
http://primanota.ru/gorerotted/her-gash-i-did-slash-chords.htm
Привет, Гость.
Предлагаем пройти революционный курс по гитаре.
Подарок от PrimaNota.Ru, забирай!